» » »

S.O.D., Bigger Than The Devil Tabs (ver.1)

Artists:  A B C D E F G H I J K L M N O P Q R S T U V W X Y Z # 

Bigger Than The Devil Tabs (ver.1)

S.O.D. Tabs
 Rating:
4/5 (4 votes)
Bigger Than The Devil lessons Tabs too difficult? Try these video lessons and learn fast
                bigger than the devil


any questions or corrections-e-mail me

tune down 1 step (dropped C tuning)

Intro   
D:|----------------------------------------------------|
A:|----------------------------------------------------|
F:|----------------------------------------------------|
C:|----------------------------------------------------|
G:|---1-------------00---1-------------0-0-0-0-0-0-0-0-|
C:|-0-1-0--B-A-S-S--00-0-1-0--B-A-S-S--0-0-0-0-0-0-0-0-|
 
   Riff 1
D:|-----------------------------------------------------------------------|
A:|-----------------------------------------------------------------------|
F:|-----------------------------------------------------------------------|
C:|-----------------------------------------------------------------------|
G:|---1-----3--2~---1-----3--2^3^2----1-----3--2~-----1---0-0-0-0-0-0-0-0-|
C:|-0-1-0-0-3-----0-1-0-0-3---------0-1-0-0-3-------0-1-0-0-0-0-0-0-0-0-0-| 

                                                               end riff 1
D:|----------------------------------------------------------------------|
A:|----------------------------------------------------------------------|
F:|----------------------------------------------------------------------|
C:|----------------------------------------------------------------------|
G:|---1-----3--2~---1-----3--2^3^2----1-----3--2~---1-----3--2^3^2--1-0--|
C:|-0-1-0-0-3-----0-1-0-0-3---------0-1-0-0-3-----0-1-0-0-3---------1-0--| 

Verse 1:  It's been so long...
D:|-----------------------------------------------|
A:|-----------------------------------------------|
F:|-----------------------------------------------|
C:|-----------------------------------------------|
G:|------------00---1-------------0-0-0-0-0-0-0-0-|
C:|---B-A-S-S--00-0-1-0--B-A-S-S--0-0-0-0-0-0-0-0-|

Riff 1 : carve a swastika into your head ...


    You     won't    pay      for    your sins 
D:|------------------------------------------------|
A:|------------------------------------------------|
F:|------------------------------------------------|
C:|------------------------------------------------|
G:|-0-0-0---0-0-0---0-0-0---0-0-0---0-0-0--/12~----|
C:|-0-0-0---0-0-0---0-0-0---0-0-0---0-0-0----------|



   I'll       ab     so     lute  every one of them
D:|------------------------------------------------|
A:|------------------------------------------------|
F:|------------------------------------------------|
C:|-------------------------------------------12---|
G:|-0-0-0---0-0-0---0-0-0---0-0-0---0-0-0--/12--12-|
C:|-0-0-0---0-0-0---0-0-0---0-0-0---0-0-0----------|

   so offer your soul for Sgt.D to claim you
D:|------------------------------------------------|
A:|------------------------------------------------|
F:|------------------------------------------------|
C:|------------------------------------------------|
G:|-0-0-0---0-0-0---0-0-0---0-0-0---0-0-0--/12~----|
C:|-0-0-0---0-0-0---0-0-0---0-0-0---0-0-0----------|

 cloven hoof it with your tail bettween your legs Beezlebub you're through
D:|-------------------------------------------------------------------------|
A:|-------------------------------------------------------------------------|
F:|-------------------------------------------------------------------------|
C:|-------------------------------------------------------------------------|
G:|-0-0-0---0-0-0---0-0-0---0-0-0-------------------------------------------|
C:|-0-0-0---0-0-0---0-0-0---0-0-0-------------------------------------------|


back to Riff 1: carve a swastika into your head ...

     Your soul looks so delicious
D:|----------------------------------------------|
A:|----------------------------------------------|
F:|----------------------------------------------|
C:|----------------------------------------------|
G:|-----------00---1-------------0-0-0-0-0-0-0-0-|
C:|--B-A-S-S--00-0-1-0--B-A-S-S--0-0-0-0-0-0-0-0-|

  yes, I'm bigger than Christ and his cross
  yes, I'm bigger than Buddha he's lost
  yes, I'm bigger than Allah and his lot
  I'm bigger than the devil,his disciples and flock  
D:|--------------------------------------|
A:|--------------------------------------|
F:|--------------------------------------|
C:|--------------------------------------|
G:|---1-----3--2~-------1-----3--2^3^2---|
C:|-0-1-0-0-3---------0-1-0-0-3----------| 


   I'll     take     you    to     suffer
D:|------------------------------------------------|
A:|------------------------------------------------|
F:|------------------------------------------------|
C:|------------------------------------------------|
G:|-0-0-0---0-0-0---0-0-0---0-0-0---0-0-0--/12~----|
C:|-0-0-0---0-0-0---0-0-0---0-0-0---0-0-0----------|

   where   there's    no      re     demption
D:|------------------------------------------------|
A:|------------------------------------------------|
F:|------------------------------------------------|
C:|-------------------------------------------12---|
G:|-0-0-0---0-0-0---0-0-0---0-0-0---0-0-0--/12--12-|
C:|-0-0-0---0-0-0---0-0-0---0-0-0---0-0-0----------|

   so offer your soul for Sgt.D to claim you
D:|------------------------------------------------|
A:|------------------------------------------------|
F:|------------------------------------------------|
C:|------------------------------------------------|
G:|-0-0-0---0-0-0---0-0-0---0-0-0---0-0-0--/12~----|
C:|-0-0-0---0-0-0---0-0-0---0-0-0---0-0-0----------|

cloven hoof it with your tail bettween your legs Beezlebub you're through
D:|-------------------------------------------------------------------------|
A:|-------------------------------------------------------------------------|
F:|-------------------------------------------------------------------------|
C:|-------------------------------------------------------------------------|
G:|-0-0-0---0-0-0---0-0-0---0-0-0-------------------------------------------|
C:|-0-0-0---0-0-0---0-0-0---0-0-0-------------------------------------------|

 Outro: little bit faster (4 times)
D:|-------------------------------------|--------|
A:|-------------------------------------|--------|
F:|-------------------------------------|--------|
C:|-7-7-7-7-7-7-7-7-7-7-7-7-7-7----12---|-7-7-7--|
G:|-5-5-5-5-5-5-5-5-5-5-5-5-5-5-/12--12-|-5-5-5--|
C:|-0-0-0-0-0-0-0-0-0-0-0-0-0-0---------|-0-0-0--|

end.
            
Submit corrections

comments powered by Disqus
↑ Back to top | S.O.D. Tabs for Bigger Than The Devil. Lyrics for acoustic guitar and electric guitar. Tablatures and chords are parodies/interpretations of the original songs. You may use it for private study, scholarship, research or language learning purposes only