» » »

Socratic, We Burn Houses Bass tabs (ver.1)

Artists:  A B C D E F G H I J K L M N O P Q R S T U V W X Y Z # 

We Burn Houses Bass tabs (ver.1)

Socratic Tabs
 Rating:
4/5 (4 votes)
We Burn Houses lessons Tabs too difficult? Try these video lessons and learn fast
                -----------------------------------------------------------------------------
-----------------------------------------------------------------------------

Tuning:Standard

Intro
G|------------------------------------------------4-------6-----------------|
D|-6-6p4-------------------------------4--------6---6---4---------6-6p4-----|
A|-------4--4-4--4-4-6-6--6-6-7-7--7-7---7-6--4-------6-----6-7---------4---|
E|--------------------------------------------------------------------------|

Verse
G|--------------------------------------------------------------------------|
D|-------------------------------4------------------------------------------|
A|-4--4-4--4-4-6-6--6-6-7-7--7-7---7-6--------------------------------------|
E|--------------------------------------------------------------------------|

Pre-Chorus
G|--------------------------------------------------------------------------|
D|---9---9-6-6-6-6----------------------------------------------------------|
A|-6---7--------------------------------------------------------------------|
E|--------------------------------------------------------------------------|

Chorus
G|--------------------------------------------------------------------------|
D|--------------------------------------------------------------------------|
A|-2-2-2-2-2-2-2-2-4-4-4-4-4-4-4-4------------------------------------------|
E|---------------------------------4-4-4-4-4-4-4-4-0-0-0-0-0-0-0-0----------|

G|--------------------------------------------------------------------------|
D|-----4------4------6------4--------------4--------------------------------|
A|-2-2----2-2----4-4----4-4---6--------4h6-------4h6------------------------|
E|------------------------------7--4-4-------4-4-----7-0-0-0-0-0-0-0-0------|

Bridge/Piano Solo
G|--------------------------------------------------------------------------|
D|-------------------------------------------------4-4-4-4-4-4-4-4----------|
A|-----------------2-2-2-2-2-2-2-2-4-4-4-4-4-4-4-4--------------------------|
E|-4-4-4-4-4-4-4-4----------------------------------------------------------|
            
Submit corrections

comments powered by Disqus
↑ Back to top | Socratic Bass for We Burn Houses. Lyrics for acoustic guitar and electric guitar. Tablatures and chords are parodies/interpretations of the original songs. You may use it for private study, scholarship, research or language learning purposes only