» » »

Socratic, Lunch For The Sky Tabs (ver.1)

Artists:  A B C D E F G H I J K L M N O P Q R S T U V W X Y Z # 

Lunch For The Sky Tabs (ver.1)

Socratic Tabs
 Rating:
4/5 (7 votes)
Lunch For The Sky lessons Tabs too difficult? Try these video lessons and learn fast
1
                -----------------------------------------------------------------------------
-----------------------------------------------------------------------------


Tuning: STANDARD

Intro/Main Riff
e|----------------------------|
B|-8-6-5-6-5----8-6-5-6-5-----|
G|------------------------5---|
D|--------------------------5-|
A|----------------------------|
E|----------------------------|

Verse
e|----------------------------------------|
B|----------------------------------------|
G|-5--------------------------------------|
D|-5------3------5------3-----3-3-3-3-3-3-|
A|-3-16X--3------5------3-----3-3-3-3-3-3-|
E|--------1-16X--3-16X--1-8X--1-1-1-1-1-1-|
p.m..............................   ...

Prechorus
e|--------------------------------------------|
B|--------------------------------------------|
G|--------------------------------------------|
D|-5-5-5-5-5----3-3-3-3-3---5-----3-3-3-2-0---|
A|-5-5-5-5-5----3-3-3-3-3---5---------------3-|
E|-3-3-3-3-3----1-1-1-1-1---3-32X-------------|

Chorus
e|-----------------------------------------------------------------|
B|-----------------------------------------------------------------|
G|-5-5-5-5-5-5-5-5-------------------------------------------------|
D|-5-5-5-5-5-5-5-5-5-5-5-5-5-5-5-5-7-7-7-7-7-7-7-7-3-3-3-3-3-3-3-3-|
A|-3-3-3-3-3-3-3-3-5-5-5-5-5-5-5-5-7-7-7-7-7-7-7-7-3-3-3-3-3-3-3-3-|
E|-----------------3-3-3-3-3-3-3-3-5-5-5-5-5-5-5-5-1-1-1-1-1-1-1-1-|

Bridge
e|----------------------------|
B|----------------------------|
G|-5--------------------------|
D|-5------5------3------5-----|
A|-3-16X--5------3------5-----|
E|--------3-16X--1-16X--3-16X-|

Ending
e|-------------------------------------------------|
B|-------------------------------------------------|
G|-----5-----5-----5-----5h7p5---------------------|
D|-5h7---5h7---5h7---5h7-------7-5h7-7-7-5h7-------|
A|-------------------------------------------7-5---|
E|-----------------------------------------------8-|


e|-------------------------------------------------------------------|
B|-4-4-4-4-4-4-4-4-4-4-4-4-4-4-4-4-5-5-5-5-5-5-5-5-6-6-6-6-6-6-6-6---|
G|-----------------------------------------------------------------5-|
D|-------------------------------------------------------------------|
A|-------------------------------------------------------------------|
E|-------------------------------------------------------------------|
            
Submit corrections

comments powered by Disqus
↑ Back to top | Socratic Tabs for Lunch For The Sky. Lyrics for acoustic guitar and electric guitar. 1 Tablatures and chords are parodies/interpretations of the original songs. You may use it for private study, scholarship, research or language learning purposes only