>
 >
Still Alive

Still Alive Guitar Tabs

Social Distortion - Still Alive chords, tabs, tablatures, lyrics

Guitar lessons | Add/correct | Request | Top 50 tabs Artists:  A B C D E F G H I J K L M N O P Q R S T U V W X Y Z 0-9

Still Alive Guitar Tabs – Social Distortion

CD, Sheet music, Poster

Do you like Still Alive? Share with your friends now
Tabs
-------------------------------------------------------------------------------
-------------------------------------------------------------------------------

Tuning: Standard

im using capo on 1st fret to play the open chord like most of Social D's song or like 
Mike Ness did, because 3 of 4 chords are open chords if you are using capo

chords from beginning until finish was just:
A# G D# E# (without capo would be like that)

Well, I remember when we were young
And you said that I was done
Well, I walked the long boulevard
My head hanging down
And the word out on the street
I was back up on my feet
I was fighting the same old wars
Had to even up the score

And I'm still alive and I will survive
I can take what life's got to give
Just need a little time
And I'm still alive, talking that some ol' jive
I can handle what comes my way
Just gimme another day

And the times have changed my friend
I'll be here to the bitter end
With a guitar in my hand I stand a little taller
And I've been to hell and back
I ain't falling off this track

And I'm still alive and I will survive
I can take what life's got to give
Just need a little time
And I'm still alive, talking that some ol' jive
I can handle what comes my way
Just gimme another day

And from town to town I roam
Take me so very far from home
And I woke up one summer day and I fell in love
And the times have changed, my friend
I'll be here to the bitter end
And I'm here to make my stand
With a guitar in my hand

And I'm still alive and I will survive
I can take what life's got to give
Just need a little time
And I'm still alive, talking that some ol' jive
I can handle what comes my way
Just gimme another day
Another day

the opening solo was very similar with a second part of Wickersham solo, i think it was 
a little bit different, but i guess you guys could figure it out.

Mike Ness's Solo (1:55 - 2:05)
e|-----------------------------------------------|
B|-----------------------------------------------|
G|-7-5-777--101010-7-5-777--101010-7-5-7/10-7-5--|
D|-x-x-xxx--xxx----x-x-xxx--xxx----x-x-x/x--x-x--|
A|-5-3-555--888----5-3-555--888----5-3-5/8--5-3--|
E|-----------------------------------------------|

Mike Ness's Solo (2:06 - 2:17)
e|-----------------------------------------|
B|-----------------------------------------|
G|---------------5/7\5--5/7\5--------------|
D|-8--8\5---555--x/x\x--x/x\x---8----------|
A|-x--x\x---xxx--3/5\3--3/5\3---x----------|
E|-6--6\3---333-----------------6----------|
       *slide down and strum it when you hit G chord


Wickersham's Finishing Solo: (3:04 - 3:12)
1st
e|-------------------------------------------------|
B|-------------------------------------------------|
G|-----------------3--3-5b7br5---3--3--------------|
D|-----3-5---5-3-5---5-------------5--5\3----------|
A|-3/5---------------------------------------------|
E|-------------------------------------------------|
       (3:13 - 3:25)
2nd
e|-----------------------------------------------------------|
B|------------------------------------------11---------------|
G|-5/8-8-7-5-7-5-7/8-7-5-7-5-7-5-7/8--10b12--12r10+~---------|
D|-----------------------------------------------------------|
A|-----------------------------------------------------------|
E|-----------------------------------------------------------|

   the rest little bit faster
3rd
e|--------------------------------------------------------------------------|
B|11---------11------11------11-------11------11---13pb14-11----------------|
G|------10h12---10h12---10h12----10h12---10h12--------------1212--10-12-----|
D|--------------------------------------------------------------------------|
A|--------------------------------------------------------------------------|
E|--------------------------------------------------------------------------|

4th a little bit faster too
e|---------------------------------------------------------------------------|
B|----11-13b15br13-11--------------------------------------------------------|
G|--12-----------------12-10---10-----------------10-------------------------|
D|---------------------------12---12-10\8-8h10/12----12-10-8-7-8-------------|
A|---------------------------------------------------------------------------|
E|---------------------------------------------------------------------------|


thanks. enjoy. =)





Comments


Popular Social Distortion tabs & chords
Angel's Wings Bass Tabs
Dear Lover Bass Tabs
Drug Train 1 Bass Tabs
Under My Thumb Bass Tabs
Angels Wings Chords
Gimme The Sweet And Lowdown 1 Chords
1945 2 Tabs
Bakersfield Tabs
Reach For The Sky Intro Tabs
Under My Thumb 1 Tabs


Song lyrics



↑ Back to top | Tablatures and chords are parodies/interpretations of the original songs. You may use it for private study, scholarship, research or language learning purposes only
© 2014 AZChords.com Contact us | Privacy policy | DMCA | Add/correct tabs | Request tabs | Top 50 tabs