» » »

Soapdish, Tensionado Tabs (ver.4)

Artists:  A B C D E F G H I J K L M N O P Q R S T U V W X Y Z # 

Tensionado Tabs (ver.4)

Soapdish Tabs
 Rating:
4.3/5 (6 votes)
Tensionado lessons Tabs too difficult? Try these video lessons and learn fast
1
                
Tuning:    Standard

Intro/Outro:

E-------|
B-------|
G-------| 3x
D--7-77-|
A--7-77-|
E--5-55-|

Verse:

E------4---4\3-2-2-----5--7---|
B--5---5---5\4-3-2h3---6--7---|
G--6---4---4\3-2-2-----5--7---|
D--7---6---6\5-4-2h4---7--7---|
A--7---4---4\3-2-2-----5--7---|
E--5--------------------------|

Refrain:

E--2---4---2---4---4\3-2---5-|
B--2---5---2---5---5\4-3---6-|
G--2---4---2---4---4\3-2---5-|
D--0---6---0---6---6\5-4---7-|
A------4-------4---4\3-2---5-|
E----------------------------|

Then...

E---------------------|
B---------------------|
G---------------------|
D---------------------|
A----5/7-5-4-5--------|
E--5-----------5--0-5-|


Adlib: Use verse chords

Refrain 2:

E--2---4---2---4------4\3-2---5-|
B--2---5---2---5------5\4-3---6-|
G--2---4---2---4---2x-4\3-2---5-|
D--0---6---0---6------6\5-4---7-|
A------4-------4------4\3-2---5-|
E-------------------------------|

Then...

E---------------------|
B---------------------|
G---------------------|
D---------------------|
A----5/7-5-4-5--------|
E--5-----------5--0-5-|
            
Submit corrections

comments powered by Disqus
↑ Back to top | Soapdish Tabs for Tensionado. Lyrics for acoustic guitar and electric guitar. 1 Tablatures and chords are parodies/interpretations of the original songs. You may use it for private study, scholarship, research or language learning purposes only