» » »

Set The Fire To The Third Bar Tabs (ver.1)

Artists:  A B C D E F G H I J K L M N O P Q R S T U V W X Y Z # 

Set The Fire To The Third Bar Tabs (ver.1)

Snow Patrol
Rating:
0/5 (0 votes)

Hard to play? Try these video lessons and learn fast.
                Intro/Verse:
e|-----------------|
B|-----------------|
G|-----------------|
D|----4-----2---0--|
A|----5-----5---5--|
E|--7---7---5---3--|

Riff:
e|-7-7-7-7-7-7-7-7--9-9-9-9-10-10-10-10--|
B|---------------------------------------|
G|---------------------------------------|
D|---------------------------------------|
A|---------------------------------------|
E|---------------------------------------|

Chorus:
e|------------------------------------------------------------------------------|
B|------------------------------------------------------------------------------|
G|---------------------7-7-7-7-7-7-7-7-7----------------------------------------|
D|--9-9-9-9-9-9-9-9-9--7-7-7-7-7-7-7-7-7--7-7-7-7-7-7-7-7-7--5-5-5-5-5-5-5-5-5--|
A|--9-9-9-9-9-9-9-9-9--5-5-5-5-5-5-5-5-5--7-7-7-7-7-7-7-7-7--5-5-5-5-5-5-5-5-5--|
E|--7-7-7-7-7-7-7-7-7---------------------5-5-5-5-5-5-5-5-5--3-3-3-3-3-3-3-3-3--|

End On:
G|-----|
D|-----|
A|-----|
E|--3--|
            
Hard to play? Try these video lessons and learn fast. | Correct




comments powered by Disqus
↑ Back to top | Tablatures and chords are parodies/interpretations of the original songs. You may use it for private study, scholarship, research or language learning purposes only