» » »

Snow Patrol, Same Tabs (ver.1)

Artists:  A B C D E F G H I J K L M N O P Q R S T U V W X Y Z # 

Same Tabs (ver.1)

Snow Patrol Tabs
Rating:
0/5 (0 votes)
Hard to play? Try these video lessons and learn fast.
                12. Same

VERSE 
e-8-------------------|-8-------------------|-
b-----5-----------5-6-|-----5-----------5-6-|-
g----------5----------|----------5----------|-
D---------------------|---------------------|-
A---------------------|---------------------|-
E---------------------|---------------------|-

BRIDGE
e-3-----1----1-------------------------
b-3-----3----1-------------------------
g-0-----3----2-------------------------
D-0-----3----3-------------------------
A-2-----1----3-------------------------
E-3----------1-------------------------


CHORUS
e-----------------------------------
b-----------------------------------
g-----------------------------------
D-5------------8--------------------
A-5------------8--------------------
E-3------------6--------------------

This tab needs more work as the songs mainly done on piano and i dont know the chords used there.
            

comments powered by Disqus
↑ Back to top | Snow Patrol Tabs for Same. Lyrics for acoustic guitar and electric guitar. Tablatures and chords are parodies/interpretations of the original songs. You may use it for private study, scholarship, research or language learning purposes only