» » »

Give Me Strength Tabs (ver.1)

Artists:  A B C D E F G H I J K L M N O P Q R S T U V W X Y Z # 

Give Me Strength Tabs (ver.1)

Snow Patrol
Rating:
0/5 (0 votes)

Hard to play? Try these video lessons and learn fast.
                tuning EADGCE

capo on 9th

Verse:

E|--11------11------11------11--------|
C|----11------11------11------11------|
G|------11------11------11------11----|
D|--9---9---9---9---------------------|
A|------------------11--11--11--11----|
E|------------------------------------|
(...........i.......choked back...) 

E|--11------11------11------11--------|
C|----11------11------11------11------|
G|------11------11------11------11----|
D|------------------------------------|
A|------------------------------------|
E|--11--11--11--11--12--12--12--12----|
(...tears.......today...)



pre-chorus:

E|--11------11------11------11--------|
C|----11------11------11------11------|
G|------11------11------11------11----|
D|------------------------------------|
A|--9---9---9---9---9---9---9---9-----|
E|------------------------------------|
(..time slips its tired hand...)

E|--11------11------11------11--------|
C|----11------11------11------11------|
G|------11------11------11------11----|
D|------------------------------------|
A|------------------------------------|
E|--12--12--12--12--12--12--12--12----|
(...into our tired hands...)



chorus: 

guitar1 plays verse's tabs
(guitar2 plays chords B G#m D# E)


fingering:

  IX   X  XI  XII
E|-0-|---|-1-|---|
C|-0-|---|-1-|---|
G|-0-|---|-1-|---|
D|-0-|---|---|---|
A|-0-|---|-2-|---|
E|-0-|---|-2-|-2-|

0 - capo
1 - forefinger
2 - index finger
            
Hard to play? Try these video lessons and learn fast. | Correct




comments powered by Disqus
↑ Back to top | Tablatures and chords are parodies/interpretations of the original songs. You may use it for private study, scholarship, research or language learning purposes only