» » »

Snow Hank, Hello Love Tabs (ver.1)

Artists:  A B C D E F G H I J K L M N O P Q R S T U V W X Y Z # 

Hello Love Tabs (ver.1)

Snow Hank Tabs
 Rating:
4/5 (4 votes)
Hello Love lessons Tabs too difficult? Try these video lessons and learn fast
1
                pick next to the bridge for the first part of the intro
(when i play this part i keep my pointing finger on the 7th fret at all times)

intro
e|---------------------------------------------------------------------------|
B|-7-8-9-8-7-8-9-8-7--7-8-9-8-7-8-9-8-7--8-9-8-7-8-9-8-7-8-7-7---------------|
G|---------------------------------------------------------------------------|
D|---------------------------------------------------------------------------|
A|---------------------------------------------------------------------------|
E|---------------------------------------------------------------------------|

second part of the intro (x2)
(play this part over the sound hole)
e|--9--9--8-8--8-8-7-7-------------------------------------------------------|
B|-10-10--9-9--7-7-6-6-------------------------------------------------------|
G|---------------------------------------------------------------------------|
D|---------------------------------------------------------------------------|
A|---------------------------------------------------------------------------|
E|---------------------------------------------------------------------------|
play this after he sings HELLO LOVE 
(play over sound hole)


e|---------------------|
B|---------------------|
G|---10b-9~------------|
D|---------------------|
A|---------------------|
E|---------------------|
then the second time he says it
e|--------------------------------------|
B|--------------------------------------|
G|----8b-7~-----------------------------|
D|--------------------------------------|
A|--------------------------------------|
E|--------------------------------------|

then just play the intro again for the guitar solo
            
Submit corrections

comments powered by Disqus
↑ Back to top | Snow Hank Tabs for Hello Love. Lyrics for acoustic guitar and electric guitar. 1 Tablatures and chords are parodies/interpretations of the original songs. You may use it for private study, scholarship, research or language learning purposes only