» » »

Golden Rocket Tabs (ver.2)

Artists:  A B C D E F G H I J K L M N O P Q R S T U V W X Y Z # 

Golden Rocket Tabs (ver.2)

Snow Hank
Rating:
0/5 (0 votes)

Tabs too difficult? Try these video lessons and learn fast.
                pick next to the bridge 
i will soon have HELLO LOVE tabbed
(first guiatr solo)

e|---------------------------------------------------------------------------|
B|---------------------------------------------------------------------------|
G|---------------------------------------------------------------------------|
D|------------------------------------------------2-2-2-5-4-2-2----2-----2---|
A|-------2------2-2-2--4--2-2---0-0-0---4--0-4------------------------0------|
E|----4----4-----------------------------------------------------------------|



e|---------------------------------2---2-2-----------------------------------|
B|---------------------------------0---0-0-----------------------------------|
G|---------------------------------2---2-2-----------------------------------|
D|---------------------------------1---1-1-----------------------------------|
A|------2-----2-2--4--2-2--2-0-2------------2--2-0---------------------------|
E|--4-----4--------------------------------------------4--2------------------|



e|---------------------------------------------------------------------------|
B|---------------------------------------------------------------------------|
G|---------------------------------------------------------------------------|
D|-------------------------------------------2-----2-2-2--5-4-2-4--2---------|
A|--------2---------2--2-2--4-2--2--2-0--4-----4-----------------------4-----|
E|-----4----4----------------------------------------------------------------|



e|---------------------------------------------------------------------------|
B|---------------------------------------------------------------------------|
G|----------------------------2----------------------------------------------|
D|----------------------------1----------------------------------------------|
A|-------2---------0----2----------------------------------------------------|
E|----4----4----4--------------------2---0-----------------------------------|

(second guitar solo)


e|----7--------7------0--0--0------9----0-0--7----0-0-0--------------0-0-0---|
B|----9----9-------------0---------9---------9------------3s5----------------|
G|---------------------------------9----------------------4s6----------------|
D|---------------------------------------------------------------------------|
A|--------------------------------------------------------------0------------|
E|---------------------------------------------------------------------------|


e|---2B--0--0-----------0----------0--------/4--------4----0----0------------|
B|------------0-------------0----------0----/5----5-------------0------------|
G|---------------/4--------/4---------/4----/4------------------1------------|
D|---------------------------------------------------------------------------|
A|---------------------------------------------------------------------------|
E|---------------------------------------------------------------------------|


e|---7-----9--7---7-----9---7---9---7---0---0---10----0-0-7----0--0----------|
B|---7------------7-----7-------7-----------0----9--------9-------0----------|
G|---8--8---------8-----8----------------------------------------------------|
D|---------------------------------------------------------------------------|
A|---------------------------------------------------------------------------|
E|---------------------------------------------------------------------------|

e|----------0--------0-0-0--2B--0-0--0----------0-----0----------------------|
B|----3s5------------------------------2----0-----0------0----4--4-4---------|
G|----4s6------2---------------------------/4----/4------0----2--2-4---------|
D|------------------------------------------------------------4--4-4---------|
A|---------------------------------------------------------------------------|
E|---------------------------------------------------------------------------|
            
Tabs too difficult? Try these video lessons and learn fast.




comments powered by Disqus
↑ Back to top | Tablatures and chords are parodies/interpretations of the original songs. You may use it for private study, scholarship, research or language learning purposes only