» » »

Snow, Funky Martini Tabs (ver.1)

Artists:  A B C D E F G H I J K L M N O P Q R S T U V W X Y Z # 

Funky Martini Tabs (ver.1)

Snow Tabs
 Rating:
4/5 (4 votes)
Funky Martini lessons Tabs too difficult? Try these video lessons and learn fast
1
                ----------------------------------------------------------------------------
----------------------------------------------------------------------------

=================================

INTRO/VERSES:

[GUITAR 1]
     (C#m)
E---4-----------4-----------4-----------4-----------4-----------|
B------5-----------5------------5----------5-----------5--------|
G---------6------------6------------6----------6-----------6----|
D---------------------------------------------------------------|
A---------------------------------------------------------------|
E---------------------------------------------------------------|

The strumming below is very faint. After C#m, GUITAR 2 becomes dominant

     (Bm)
E---2-----------2-----------2-----------2-----------2-----------|
B------3-----------3------------3----------3-----------3--------|
G---------4------------4------------4----------4-----------4----|
D---------------------------------------------------------------|
A---------------------------------------------------------------|
E---------------------------------------------------------------|

[GUITAR 2]
    (RIFF 1)                            (RIFF2)
E---------------------------------------9-9-9-7---9-9-9-9-9-9-7----|
B----0--2---4/5-----7---8-7-5--------------------------------------|
G------------------------------------------------------------------|
D------------------------------------------------------------------|
A------------------------------------------------------------------|
E------------------------------------------------------------------|

  (RIFF3)
E--------------------------------------|
B--5--2-0---5--2-0---5--2-0---5--2-0---|
G--------------------------------------|
D--------------------------------------|
A--------------------------------------|
E--------------------------------------|


  (RIFF 4 - played in the verses only, see below)
E-----------------------------------------|
B----0--4/5-4/5-----0--4/5-4/5------------|
G-----------------------------------------|
D-----------------------------------------|
A-----------------------------------------|
E-----------------------------------------|


VERSE 1

C#m                                        Bm  (RIFF 4)
Suddenly strange things are happening to me

C#m                                            Bm  (RIFF 2)
Strange people are not the faces I wanted to see

C#m
Champagne, pain or drugs through the veins

                 Bm          (RIFF 4)
How could this happen to me?

C#m
Ready or not here it comes

                          Bm  (RIFF 3)
Temples pounding like drums at a quarter to one


CHORUS
   (RIFF 1 variation)
When the doors of perception are opening wide
Took a trip lost my grip and I flip my own lid

   (RIFF 1 variation)
Do you dare to open it and see what's inside
Took a trip lost my grip and I flipped my own lid

Flip my lid, Flipped my lid
I fell down and that's what I done did
In the morning time it makes me feel fine
In the middle of the night I feel alright

VERSE 2
Make a move my feet never touching the ground
Try to scream my voice never making a sound
Had landslide slip my mind, lost in time
How could this happen to me?
Ready or not I'm coming through
I'm a listen to you at a quarter to two

CHORUS

Now I know my trip has finally unwound
Gently rest my feet land firm on the ground
As it fades to black, how to react I'm coming down
Thank god this happened to me at a quarter to three

CHORUS

If you want to hear stop come break down door
Can't do no more cuz its quarter to 4, come on
            
Submit corrections

comments powered by Disqus
↑ Back to top | Snow Tabs for Funky Martini. Lyrics for acoustic guitar and electric guitar. 1 Tablatures and chords are parodies/interpretations of the original songs. You may use it for private study, scholarship, research or language learning purposes only