» » »

Thats That Tabs

Artists:  A B C D E F G H I J K L M N O P Q R S T U V W X Y Z # 

Thats That Tabs

(ver. 3)
Snoop Doggy Dogg Tabs
 Rating:
4.5/5 (8 votes)
    Thats That lessons Tabs too difficult? Try these video lessons and learn fast
                e|-------------------------------------------------------------------------|
B|---5-3----------0-1-0-0----0-1-0-0---------------------------------------|
G|-5-----5-4----2------2----2-----2-2--------------------------------------|
D|-------------------------------------------------------------------------|
A|-------------------------------------------------------------------------|
E|-------------------------------------------------------------------------|

then the variation...

e|-------------------------------------------------------------------------|
B|---5-3----------0-1-0-0-6-5----------------------------------------------|
G|-5-----5-4----2------2-2-------------------------------------------------|
D|-------------------------------------------------------------------------|
A|-------------------------------------------------------------------------|
E|-------------------------------------------------------------------------|
            
Submit corrections

↑ Back to top | Snoop Doggy Dogg Tabs for Thats That. Lyrics for acoustic guitar and electric guitar. Tablatures and chords are parodies/interpretations of the original songs. You may use it for private study, scholarship, research or language learning purposes only