» » »

Snoopafella Bass tabs (ver.1)

Artists:  A B C D E F G H I J K L M N O P Q R S T U V W X Y Z # 

Snoopafella Bass tabs (ver.1)

Snoop Doggy Dogg
Rating:
5/5 (5 votes)
Tabs too difficult? Try these video lessons and learn fast.
                Bassist:Section8

Beat 1

G -------------------------------------------|
D -------------7-7-7-5-----------------------|
A ----------7----------7---------------------|
E -0--3-5-3----------------------------------|


Beat 2

G -------------------------------------------|
D -------------------------------------------|
A -------------------------------------------|
E -0--3-5-3-0--5-5-5-3-0---------------------|
            
Tabs too difficult? Try these video lessons and learn fast.


comments powered by Disqus
↑ Back to top | Tablatures and chords are parodies/interpretations of the original songs. You may use it for private study, scholarship, research or language learning purposes only