>
 >
To Be Of Use

To Be Of Use Guitar Tabs

Smog - To Be Of Use chords, tabs, tablatures, lyrics

Guitar lessons | Add/correct | Request | Top 50 tabs Artists:  A B C D E F G H I J K L M N O P Q R S T U V W X Y Z 0-9

To Be Of Use Guitar Tabs – Smog

CD, Sheet music, Poster

Do you like To Be Of Use? Share with your friends now
Tabs
This is a very easy song to play and it basically sticks to alternating between two 
sections being played very slowly. I think this is pretty much 100% accurate.

Most of my fantasies are of... (repeat this section until it changes)

 ------------------------------------------------|
 ------------------------------------------------|
 --1-----1-----1-----1-----1-----1-----1-----1---|
 2---2-1---2-----2-----2-----2-----2-----2-----2-|
 ------------4-----2-----0-----0-----0-----0-----|
 ------------------------------------------------|

Oh, like a spindle... (repeat this section until it changes back)

 -----------------------|
 -----------------------|
 --1-----1-----1----1---|
 ----2-----2-----2----2-|
 2-----2-----0----0-----|
 -----------------------|

Then it returns back to the first section.

So these two patterns make up the whole song and you just switch between the two. You 
hear when to change when  you listen to the song and like I said before the whole song is 
easy to play.





Comments


Popular Smog tabs & chords
Blood Red Bird Chords
Chosen One Chords
Cold Blooded Old Times Chords
Ex-con Chords
I Was A Stranger Chords
Bathysphere Tabs
Butterflies Drowned In Wine Ukulele
Chosen One Ukulele
Dress Sexy At My Funeral Ukulele
I Was A Stranger Ukulele


Song lyrics



↑ Back to top | Tablatures and chords are parodies/interpretations of the original songs. You may use it for private study, scholarship, research or language learning purposes only
© 2014 AZChords.com Contact us | Privacy policy | DMCA | Add/correct tabs | Request tabs | Top 50 tabs