>
 >
Our Anniversary

Our Anniversary Guitar Tabs

Smog - Our Anniversary chords, tabs, tablatures, lyrics

Guitar lessons | Add/correct | Request | Top 50 tabs Artists:  A B C D E F G H I J K L M N O P Q R S T U V W X Y Z 0-9

Our Anniversary Guitar Tabs – Smog

CD, Sheet music, Poster

Do you like Our Anniversary? Share with your friends now
Tabs
-------------------------------------------------------------------------------
-------------------------------------------------------------------------------

Tuning: Standard, capo on the 4th fret

INTRO/VERSE
e|---------------------------------------------------------------------------|
B|---0-----0-----0------0-----0-------0------0-------------------------------|
G|---0-----0-----0------0-----0-------0------0-------------------------------|
D|---------------------------------------------------------------------------|
A|-----0h2---------0h2-----------0h2--------------0h2p0h2--------------------|
E|-3----------3------------3-------------3-----------------------------------|

e|---------------------------------------------------------------------------|
B|---0-----0-----0------0-----0-------0------0-------------------------------|
G|---0-----0-----0------0-----0-------0------0-------------------------------|
D|---------------------------------------------------------------------------|
A|-----0h2---------0h2-----------0h2--------------0h2p0h2--------------------|
E|-0----------0------------0--------------0----------------------------------|

FILL 1 OVER VERSE

e|---------------------------------------------------------------------------|
B|--8---7H8---------8--7H8---------------------------------------------------|
G|--7----7---X 4---------------X 4-------------------------------------------|
D|------------------9---9----------------------------------------------------|
A|---------------------------------------------------------------------------|
E|---------------------------------------------------------------------------|

CHORUS
e|---------------------------------------------------------------------------|
B|----2-------3-------2--------0H2-------------2-----------------------------|
G|------2-------2-------2----------2---------2-------------------------------|
D|--------2-------2-------2----------2-----2---------------------------------|
A|--0-------0-------0--------0----------0------------------------------------|
E|---------------------------------------------------------------------------|

FILL 2 BEFORE CHORUS
e|---------------------------------------------------------------------------|
B|---8---7---5---3---8---7---5---3-------------------------------------------|
G|---0---------------0-------------------------------------------------------|
D|-------4---2---0-------4---2---0-------------------------------------------|
A|---------------------------------------------------------------------------|
E|---------------------------------------------------------------------------|



************************************

| /   slide up
| \   slide down
| h   hammer-on
| p   pull-off
| ~   vibrato
| +   harmonic
| x   Mute note
| b   Bend
| pb  Pre-bend
| br  Bend release
| pbr Pre-bend release
| brb Bend release bend

************************************





Comments


Popular Smog tabs & chords
Cold Blooded Old Times Chords
Feather By Feather Chords
I Break Horses Chords
I Was A Stranger Chords
Vessel In Vain Chords
To Be Of Use Tabs
Butterflies Drowned In Wine Ukulele
I Was A Stranger Ukulele
Spanish Moss Ukulele
Vessel In Vain Ukulele


Song lyrics



↑ Back to top | Tablatures and chords are parodies/interpretations of the original songs. You may use it for private study, scholarship, research or language learning purposes only
© 2014 AZChords.com Contact us | Privacy policy | DMCA | Add/correct tabs | Request tabs | Top 50 tabs