» » »

All Your Women Things Tabs (ver.1)

Artists:  A B C D E F G H I J K L M N O P Q R S T U V W X Y Z # 

All Your Women Things Tabs (ver.1)

Smog
Rating:
0/5 (0 votes)

Hard to play? Try these video lessons and learn fast.
                -------------------------------------------------------------------------------
-------------------------------------------------------------------------------

Tuning:Standard
Capo on 2nd fret

e|-------------------------------------------------------------------------------|
B|-0-----0-----0-----0--------0-----0-----0-----0-------0-----0----0-----0-------|
G|---2-----2-----2-----2--------2-----2-----2-----2-------2-----2----2-----2-----|
D|-----------------------0--------------------------0------------------------0---|
A|-------------------------------------------------------------------------------|
E|3-----3-----3-----3-------2-----2-----2-----2-------0-----0-----0-----0--------|

Lyrics:

All your women things
All your frilly things
Scattered 'round my room
Right where you left them
When you left them
Scattered 'round my room

All your hardness
All your softness
And your mercy

All your bridges and bras
Your cotton
and gauze
All your buckles and straps
Releases and traps
All your screws
and false nails
Oriental winks
and Egyptian veils

Oh all of these things
I gathered them
And I made a dolly
I made a dolly
A spread-eagle dolly
Out of your frilly things

Why couldn't I have loved you
This tenderly
When you were here
In the flesh
So tenderly

How could I ignore
Your left breast
Your right breast

How could I ignore
Your hardness
Your softness
And your mercy

Well it's been seven years
And the thought of your name
Still makes me
Weak in the knees

How could I ignore
Your left breast
Your right breast
************************************

| /   slide up
| \   slide down
| h   hammer-on
| p   pull-off
| ~   vibrato
| +   harmonic
| x   Mute note
| b   Bend
| pb  Pre-bend
| br  Bend release
| pbr Pre-bend release
| brb Bend release bend

************************************
            
Hard to play? Try these video lessons and learn fast. | Correct




comments powered by Disqus
↑ Back to top | Tablatures and chords are parodies/interpretations of the original songs. You may use it for private study, scholarship, research or language learning purposes only