>
 >
With This Knife

With This Knife Guitar Tabs

Smile Empty Soul - With This Knife chords, tabs, tablatures, lyrics

Guitar lessons | Add/correct | Request | Top 50 tabs Artists:  A B C D E F G H I J K L M N O P Q R S T U V W X Y Z 0-9

With This Knife Guitar Tabs – Smile Empty Soul

CD, Sheet music, Poster

Do you like With This Knife? Share with your friends now
ChordsTabsTabs v2Tabs v3Ukulele
tune down 1/2 step
CHORDS (chorus)
     Dm    Bb  or   Asus4  or    G5    F   or     C
Eb|--1--|---------|-----------|--3--|--1---0--|---0---|
Bb|--3--|--3---3--|---3----3--|--3--|--1---1--|---1---|
Gb|--2--|--3---0--|---2----0--|--0--|--2---2--|---0---|
Db|--0--|--3---3--|---2----2--|--0--|--3---3--|---2---|
Ab|-----|--1---1--|---0----0--|--x--|--3---3--|---3---|
Eb|-----|---------|-----------|--3--|--1------|-------|

*INTRO* (x1)
Eb|-0h1----0h1----0h1-----1-----1----------3---5-3----------1-----0-1----|
Bb|-----3------3--------3-----3---3------3---3-----3-------1-----1----1--|
Gb|-------------------3-----2-------2--0-------------0-------------------|
Db|------------------------------------------------------3-----2---------|
Ab|----------------------------------------------------------------------|
Eb|----------------------------------------------------------------------|

*VERSE 1* 

Eb|-0h1----0h1----0h1-----1-----1----------3---5-3----------1-----0-1----|
Bb|-----3------3--------3-----3---3------3---3-----3-------1-----1----1--|
Gb|-------------------3-----2-------2--0-------------0-------------------|
Db|------------------------------------------------------3-----2---------|
Ab|----------------------------------------------------------------------|
Eb|----------------------------------------------------------------------|
i let myself fall...
i let my walls...
i let myself smile...
i let my walls...
no matter how...
you push...
you wrapped...
and squeezed...


*CHORUS*
Dm                 Bb     Asus4           G5
with this knife i'll cut out the part of me 
       F              C
the part that cares for you
Dm                 Bb     Asus4           G5
with this knife i'll cut out the heart of me
       F              C
the heart that cares for you


Eb|-0-0-0-0-0-0-0-0--0-0-0--0-0-0-0--1-1-1--1-1-1-1-1--0-0-0--0-0-0-0--|
Bb|-1-1-1-1-1-1-1-1--1-1-1--1-1-1-1--3-3-3--3-3-3-3-3--1-1-1--1-1-1-1--|
Gb|-2-2-2-2-2-2-2-2--0-0-0--2-2-2-2--3-3-3--2-2-2-2-2--2-2-2--0-0-0-0--|
Db|-0-0-0-0-0-0-0-0--2-2-2--3-3-3-3--------------------3-3-3--2-2-2-2--|
Ab|------------------3-3-3--3-3-3-3--------------------3-3-3--3-3-3-3--|
Eb|--------------------------------------------------------------------|


*VERSE 2*

chord sequence, listen to the cd to get the strumming pattern
Eb|--1--|--1--|--1--|--3--|--1--|--0--|
Bb|--3--|--3--|--3--|--3--|--1--|--1--|
Gb|--2--|--3--|--2--|--0--|--2--|--0--|
Db|-----|-----|-----|-----|--3--|--2--|
Ab|-----|-----|-----|-----|--3--|--3--|
Eb|-----|-----|-----|-----|-----|-----|

i can't believe...
i never saw...
coming in...
like poison...


*CHORUS*
Dm                 Bb     Asus4           G5
with this knife i'll cut out the part of me 
       F              C
the part that cares for you
Dm                 Bb     Asus4           G5
with this knife i'll cut out the heart of me
       F              C
the heart that cares for you

(play chorus twice)


Eb|-0-0-0-0-0-0-0-0--0-0-0--0-0-0-0--1-1-1--1-1-1-1-1--0-0-0--0-0-0-0--|
Bb|-1-1-1-1-1-1-1-1--1-1-1--1-1-1-1--3-3-3--3-3-3-3-3--1-1-1--1-1-1-1--|
Gb|-2-2-2-2-2-2-2-2--0-0-0--2-2-2-2--3-3-3--2-2-2-2-2--2-2-2--0-0-0-0--|
Db|-0-0-0-0-0-0-0-0--2-2-2--3-3-3-3--------------------3-3-3--2-2-2-2--|
Ab|------------------3-3-3--3-3-3-3--------------------3-3-3--3-3-3-3--|
Eb|--------------------------------------------------------------------|

then play this same chord sequence for outro (listen to cd to get the strumming pattern)

*OUTRO*

the hate and the fear
the nightmares that awake
me up in tears the nightmares and (repeat the whole thing)

(x3)

end with this
Eb|-0h1----0h1----0h1-----1-----1----------3---5-3----------1-----0-1-------1-0-|
Bb|-----3------3--------3-----3---3------3---3-----3-------1-----1----1----3----|
Gb|-------------------3-----2-------2--0-------------0--------------------2-----|
Db|------------------------------------------------------3-----2---------0------|
Ab|-----------------------------------------------------------------------------|
Eb|-----------------------------------------------------------------------------|


this one is 100% right


done





Comments


Popular Smile Empty Soul tabs & chords
Nowhere Kids Bass Tabs
False Alarm Chords
California's Lonely Tabs
Compromise Tabs
Don't Ever Leave Tabs
Freaks Are Coming Tabs
I Want My Life 1 Tabs
Mechanical Rationality Tabs
Self Inflicted Tabs
Silhouettes 1 Tabs


Song lyrics



↑ Back to top | Tablatures and chords are parodies/interpretations of the original songs. You may use it for private study, scholarship, research or language learning purposes only
© 2014 AZChords.com Contact us | Privacy policy | DMCA | Add/correct tabs | Request tabs | Top 50 tabs