» » »

Why Can T We Be Friends Bass tabs (ver.1)

Artists:  A B C D E F G H I J K L M N O P Q R S T U V W X Y Z # 

Why Can T We Be Friends Bass tabs (ver.1)

Smash Mouth
Rating:
0/5 (0 votes)

Hard to play? Try these video lessons and learn fast.
                Smash Mouth - Why Can't We Be Friends?	  
  
Intro:  
  
G|--------------------------------------|  
D|--------------------------------------|  
A|--15--15/20--18--16--11--8--6--8--6---|  
E|--------------------------------------|  
  
Eb C# Bb Eb  x2  
  
Chorus:  
  
	   Eb         
Why can't we be friends?  
           C#  
Why can't we be friends?  
           Bb  
Why can't we be friends?  
           Eb  
Why can't we be friends?  
  
Verse:  
D                      C#  
I seen you round for a long long time  
Bb                         Eb  
I really remember when you drank my wine  
  
and so on..  
  
During the intro you play the like this:  
  
Eb:  
  
G|-----------------|  
D|-----------------|  
A|----------10-----|  
E|--11--11-----11--|  
  
  
Eb:  
  
G|------------------|  
D|---------5--8-----|  
A|---6--6-----------| x2  
E|------------------|  
  
  
Bridge:  
  
G|-----------------------------------------------------------------------------|  
D|-----------------------------------------------------------------------------|  
A|------------------8-8-8-8-8-8-8---12-12-12-12-12-12-12-12--11-10-9-8-7-6-5-4-|  
E|-4-4-4-4-4-4-4-4-------------------------------------------------------------|
            
Hard to play? Try these video lessons and learn fast. | Correct




comments powered by Disqus
↑ Back to top | Tablatures and chords are parodies/interpretations of the original songs. You may use it for private study, scholarship, research or language learning purposes only