» » »

Trip Tabs (ver.1)

Artists:  A B C D E F G H I J K L M N O P Q R S T U V W X Y Z # 

Trip Tabs (ver.1)

Smash Mouth
Rating:
0/5 (0 votes)

Tabs too difficult? Try these video lessons and learn fast.
                
BAND: Smash Mouth

Tune down half a step. (Eb, Ab, Db, Gb, Bb, Eb)

ii = octave higher

Example: A G5 in this song is actually an F#5, but since you're tuned down
half a step, you're playing F#5 in the G5 position (aka half a step higher)


Verse:
Eb |-----------------|-----------------|-----------------|-----------------|
Bb |-----------------|-----------------|-----------------|-----------------|
Gb |-----------------|-----------------|-----------------|-----------------|
Db |-0h1-1-1-0h1-1-1-|-0h1-1-1---1-1-1-|-0---0-0---0-0-0-|-2---2-2---2-2-2-|
Ab |-----------------|-----------------|-----------------|-----------------|
Eb |-----------------|-----------------|-----------------|-----------------|

Pre-Chorus:
For this he strums a Em chord (xx2200) and a Emii (xx7655) with a whammy bar. 
                            E
What the hell, is going on?
                        Eii
Just where do I belong?
C5             B5
I don't really care  

Chorus:
Eb |-----------------|-----------------|-----------------|-----------------|
Bb |-----------------|-----------------|-----------------|-----------------|
Gb |-----------------|-----------------|-----------------|-----------------|
Db |-----------------|-----------------|-----------------|-----------------|
Ab |-----------------|-----------------|-----------------|-5---5-5-7-5-----|
Eb |-5h7-7-7-5h7-7-7-|-5h7-7-7---7-7-7-|-5---5-5---5-5-5-|-------------7-5-|
Eb |-----------------|-----------------|-----------------|-----------------|

Verse 2:
Play each chord once and hold it until the
next chord change. Use a really hard tremolo so
it's almost like the sound is cutting in and out.

     B5                A5       G#5 E5
Bb |-----------------|-----------------|
Gb |-----------------|-----------------|
Db |-9---------------|-7--------6---2--|
Ab |-9---------------|-7--------6---2--|
Eb |-7---------------|-5--------4---0--|

                                        G5   A5   E5
I can't seem to walk with out having to trip over you
     G5        A5    E5
Just what am I gonna do
C5             B5 
I don't really care

Chorus

Bridge:
        G5    A5      E5
What is said, what is done  
  G5      A5     E5
I take it on the run
  G5     A5  E5  
I won't apologize
  G5       A5      E5
I won't be telling lies 
C5
How could you?
B5
Why would you? 
C5                 D5
Take advantage of
And rape me of my love
Then leave?

Play the verse riff

Verse 3:
Same as verse 2
            
Tabs too difficult? Try these video lessons and learn fast.




comments powered by Disqus
↑ Back to top | Tablatures and chords are parodies/interpretations of the original songs. You may use it for private study, scholarship, research or language learning purposes only