» » »

Smash Mouth, Hey L.A Tabs (ver.1)

Artists:  A B C D E F G H I J K L M N O P Q R S T U V W X Y Z # 

Hey L.A Tabs (ver.1)

Smash Mouth Tabs
 Rating:
4/5 (4 votes)
Hey L.A lessons Tabs too difficult? Try these video lessons and learn fast
                
BAND: Smash Mouth

Intro:

LEAD GUITAR
e |---------------------------------------|---------------------------------------|
B |---------------------------------------|---------------------------------------|
G |---------------------------------------|---------------------------------------|
D |---2--2---------4-4-5-5-------0-0--3-3-|---2--2---------4-4-5-5-------0-0--3-3-|
A |--------0-0-3-3------------------------|--------0-0-3-3------------------------|
E |--------------------------3-3----------|--------------------------3-3----------|

e |---------------------------------------|---------------------------------------|
B |---------------------------------------|---------------------------------------|
G |---------------------------------------|---------------------------------------|
D |---2--2---------4-4-5-5-------0-0--3-3-|---2--2---------4-4-5------------------|
A |--------0-0-3-3------------------------|--------0-0-3-3------------------------|
E |--------------------------3-3----------|---------------------------------------|

e |------------------------|------------------------|
B |-2h3p2-0----1---1---1-0-|-2h3p2-0----1---1---0---|
G |--------------0---0-----|--------------0---0-----|
D |------------------------|------------------------|
A |------------------------|------------------------|
E |------------------------|------------------------|

RHYTHM GUITAR
A5 C5 G5 D5


Verse:
           A5                                        C5
There's an automatic teller machine in the emergency room
                D5                  A5
There's a meter maid she arrives by broom
                                      C5
There's a bear in the air with a lullaby
                D5                       A5
And a big brown coat to keep you warm at night
                                    C5
There's a money tree and the latter leans 
               D5
Up against the trunk but the steps are greased


Chorus:
LEAD GUITAR
e |---------------------------------------|---------------------------------------|
B |---------------------------------------|---------------------------------------|
G |---------------------------------------|---------------------------------------|
D |---2--2---------4-4-5-5-------0-0--3-3-|---2--2---------4-4-5-5-------0-0--3-3-|
A |--------0-0-3-3------------------------|--------0-0-3-3------------------------|
E |--------------------------3-3----------|--------------------------3-3----------|

e |---------------------------------------|---------------------------------------|
B |---------------------------------------|---------------------------------------|
G |---------------------------------------|--------5--5-5--------7--7-7--7-7-7777-|
D |---2--2---------4-4-5-5-------0-0--3-3-|-7--7-7-5--5-5-5--5-5-7--7-7--7-7-7777-|
A |--------0-0-3-3------------------------|-7--7-7-3--3-3-5--5-5-5--5-5--5-5-5555-|
E |--------------------------3-3----------|-5--5-5--------3--3-3------------------|

e |------------------------|------------------------|
B |-2h3p2-0----1---1---1-0-|-2h3p2-0----1---1---0---|
G |--------------0---0-----|--------------0---0-----|
D |------------------------|------------------------|
A |------------------------|------------------------|
E |------------------------|------------------------|

RHYTHM GUITAR
A5 C5 G5 D5

Verse 2

Chorus

Bridge:
No guitar, just bass playing the intro riff. Feedback into the next pre-chorus.

Pre-Chorus:
Play this riff twice. The second time there is a second guitar
doubling it, except on the second time through, the last note
ends on C, not B.

LEAD GUITAR
e |------------------------|------------------------|
B |-2h3p2-0----1---1---1-0-|-2h3p2-0----1---1---0---|
G |--------------0---0-----|--------------0---0-----|
D |------------------------|------------------------|
A |------------------------|------------------------|
E |------------------------|------------------------|

RHYTHM GUITAR
A5 C5 G5 D5

Chorus

Ends with a few distorted muted clicks.
            
Submit corrections

comments powered by Disqus
↑ Back to top | Smash Mouth Tabs for Hey L.A. Lyrics for acoustic guitar and electric guitar. Tablatures and chords are parodies/interpretations of the original songs. You may use it for private study, scholarship, research or language learning purposes only