» » »

All Star Bass tabs (ver.2)

Artists:  A B C D E F G H I J K L M N O P Q R S T U V W X Y Z # 

All Star Bass tabs (ver.2)

Smash Mouth
Rating:
0/5 (0 votes)

Hard to play? Try these video lessons and learn fast.
                the only proper tab out here after everyone has been badmouthing the other one so i made 
one rate and enjoy

verse
G)--------------------|
D)--------------------|
A)---3-4--6----1-2--4-|
E)2---------4---------|


Chourus
G--------------------------------------|
D--------------------------------------|
A-----------2-2-2-2--3-3-3-3--2-2-2-2--|
E--2-2-2-2-----------------------------|

Interlude
G------------------|
D------------------|
A-----2--2-3--2----|
E--2---------------|

thanks to 'SmashMan' and 'SlaytanicdS' for the previous version which i compiled as no 
one else had, please rate and enjoy :)
            
Hard to play? Try these video lessons and learn fast. | Correct




comments powered by Disqus
↑ Back to top | Tablatures and chords are parodies/interpretations of the original songs. You may use it for private study, scholarship, research or language learning purposes only