>
 >
Wound

Wound Guitar Tabs

Smashing Pumpkins - Wound chords, tabs, tablatures, lyrics

Guitar lessons | Add/correct | Request | Top 50 tabs Artists:  A B C D E F G H I J K L M N O P Q R S T U V W X Y Z 0-9

Wound Guitar Tabs – Smashing Pumpkins

CD, Sheet music, Poster

Do you like Wound? Share with your friends now
Tabs
The Smashing Pumpkins
Off MACHINA: the machines of God (2000)
Written by Billy Corgan
Eb

Hey, you have to listen to this song at 
11.30 at a Friday night. Then you´ll
recognize how great this song is if you 
haven´t already. To get the cool sound
on the record you´ll have to add some 
effects (chorus/reverb…) and volume
swells or toogle switches.

Guitar 1: Billy (Acoustic)
Guitar 2: James (electric)


Chords:

   Bm Dsus E F#m

|--2---0---0--2---|
|--3---3---0--2---|
|--4---2---1--2---|
|--4---0---2--4---|
|--2-------2--4---|
|----------0--2---|


Intro:

Billy
|------------------------------------|
|------------------------------------|
|--2-2-2-2-2-2-2-2-2-2-2-2-2-2-2-2---| 
|--2-2-2-2-2-2-2-2-2-2-2-2-2-2-2-2---|
|--0-0-0-0-0-0-0-0-0-0-0-0-0-0-0-0---|
|------------------------------------|
        
comes in 
      
James         
|-----------------0----0---|
|-----------------0----0---|
|-----------------x-2--2---| 3x
|----11p9---7p6---6-2--2---|
|--0-0----0-0---0-0-0--0---|
|--------------------------|


Verse:

both guitars
|-----------------0----0---|
|-----------------0----0---|
|-----------------x-2--2---| 2x
|----11p9---7p6---6-2--2---|
|--0-0----0-0---0-0-0--0---|
|--------------------------|

"There you are…"

Billy
|--2-2-2-2-2-2-2-0---0-0-0-0-0-0-0---|
|--2-2-2-2-2-2-2-3---3-3-3-3-3-3-3---|
|--2-2-2-2-2-2-2-2---2-2-2-2-2-2-2---| James keeps on playing
|--4-4-4-4-4-4-4-0---0-0-0-0-0-0-0---| his Intro/Verse Riff
|--4-4-4-4-4-4-4---------------------|
|--2-2-2-2-2-2-2---------------------|

"…in bathing light…"

both guitars
|-----------------0----0---|
|-----------------0----0---|
|-----------------x-2--2---| 3 times
|----11p9---7p6---6-2--2---|
|--0-0----0-0---0-0-0--0---|
|--------------------------|

"You´re a a part of me…"

Billy
|--2-2-2-2-2-2-2-0---0-0-0-0-0-0-0---|
|--2-2-2-2-2-2-2-3---3-3-3-3-3-3-3---|
|--2-2-2-2-2-2-2-2---2-2-2-2-2-2-2---| James keeps on playing 
|--4-4-4-4-4-4-4-0---0-0-0-0-0-0-0---| his Intro/Verse Riff
|--4-4-4-4-4-4-4---------------------|
|--2-2-2-2-2-2-2---------------------|

"…by grand design..."

Billy
|--0-0-0-0-0-0-0-0---|
|--2-2-2-2-2-2-2-2---|
|--2-2-2-2-2-2-2-2---|
|--2-2-2-2-2-2-2-2---|
|--0-0-0-0-0-0-0-0---|
|--------------------|

            "If you…"


Chorus:

        Bm           Bm   
"If you wait, I will wait"

 F#m           E
"Taste, I will taste"

        Bm           Bm
"If you love, I will love"

 F#m         E               Bm
"Run, I will run… to my last road"


Bridge:

 Dsus                            Dsus           F#m    E      
"Last night I turned around and thought I saw myself turning"

 Dsus                          Dsus              F#m    E                 
"Inside the strangest dream of lives unlived and cities burning"

 Dsus        Dsus  F#m       E       Dsus              Dsus
"Awake in my arms, you cry unharmed, our age – all the hours" 

 F#m                     E
"while they still devour all"

 
Verse: same

Chorus : same

Interlude:

 Dsus                           Dsus          F#m    E      
"Last night I turned around and thought I saw myself turning"

 Dsus                          Dsus              F#m    E       Bm   
"Inside the strangest dream of lives unlived and cities burning"

 Dsus       F#m        E     E     Dsus     
"Inside the crushing down I felt a pain"
   
     F#m      E    E                         
"the tide was turning"
 
 Dsus              Dsus
"Destroyed in the wake"

 F#m              E
"the Jealous they wait"

 Dsus               Dsus
"to tear this world down"

 F#m            E
"to spite god above"

 Bm           Bm
"with his own love"
 
 F#m          E
"with his own love"


Chorus:

        Bm
"If you wait…"
 
        Bm
"If you wait…"

        F#m          E 
"If you wait, I will wait"

 Bm            Bm      
"Taste, I will taste"

        F#m           E 
"If you love, I will love"

 Bm          Bm   F#m   E    Dsus          
"Run, I will run… to my last road"

Billy
|--2-2-2-2-2-2-2-2------------------0---|
|--2-2-2-2-2-2-2-2------------------2---|
|--2-2-2-2-2-2-2-2---*drums*--------2---|
|--4-4-4-4-4-4-4-4------------------2---|
|--4-4-4-4-4-4-4-4------------------0---|
|--2-2-2-2-2-2-2-2----------------------|





Comments


Popular Smashing Pumpkins tabs & chords
Hummer Bass Tabs
Pug Bass Tabs
The Tale Of Dusty And Pistol Pete Chords
Ava Adore 2 Tabs
Mayonaise 1 Tabs
Silver*** Tabs
Siva Tabs
Stumbleine 2 Tabs
The End Is The Beginning Is The End Live Tabs
Blue Skies Bring Tears Ukulele


Song lyrics



↑ Back to top | Tablatures and chords are parodies/interpretations of the original songs. You may use it for private study, scholarship, research or language learning purposes only
© 2014 AZChords.com Contact us | Privacy policy | DMCA | Add/correct tabs | Request tabs | Top 50 tabs