» » »

Untitled Tabs (ver.1)

Artists:  A B C D E F G H I J K L M N O P Q R S T U V W X Y Z # 

Untitled Tabs (ver.1)

Smashing Pumpkins
Rating:
0/5 (0 votes)

Hard to play? Try these video lessons and learn fast.
                hello again, last week i bought the last smashing pumpkins album
and found this excellent new song.

(i´m so lazy for tab all the song but with this chords you can make 
an idea)

UNTITLED
SMASHING PUMPKINS
(rotten apples) THE S. P. GREATEST HITS
1/2 STEP DOWN


----------------------------------------------------

    A        B                          A    E
  --0-0-/-2-2-2-2--                    -0-0--0-0--   
  --2-2-/-4-4-4-4--  DO IT TWICE AND  -2-2--0-0--
  --2-2-/-4-4-4-4--                    -2-2--1-1--
  --2-2-/-4-4-4-4--                    -2-2--2-2--
  --0-0-/-2-2-2-2--                    -0-0--2-2--
  -----------------                    ------0-0--

     A        B
  --0-0-/-2-2-2-2--  
  --2-2-/-4-4-4-4--
  --2-2-/-4-4-4-4--  MOST PART OF THE SONG IS LIKE THIS
  --2-2-/-4-4-4-4--
  --0-0-/-2-2-2-2--
  -----------------
----------------------------------------------------
      E       B    A
  --0-0-0-0--2-2--0-0--  
  --0-0-0-0--4-4--2-2--
  --1-1-1-1--4-4--2-2--
  --2-2-2-2--4-4--2-2--
  --2-2-2-2--2-2--0-0--
  --0-0-0-0------------

      E       B    A   E
  --0-0-0-0--2-2--0-0-0-0----  
  --0-0-0-0--4-4--2-2-0-0----
  --1-1-1-1--4-4--2-2-1-1----
  --2-2-2-2--4-4--2-2-2-2----
  --2-2-2-2--2-2--0-0-2-2----
  --0-0-0-0-----------0-0----
 
     A        B
  --0-0-/-2-2-2-2--  
  --2-2-/-4-4-4-4--
  --2-2-/-4-4-4-4-- 
  --2-2-/-4-4-4-4--
  --0-0-/-2-2-2-2--
  -----------------
BRIDGE:

     F#
  --2-2-2-2--  
  --2-2-2-2--
  --3-3-3-3--
  --4-4-4-4--
  --4-4-4-4--
  --2-2-2-2--
  
AGAIN!!

     A        B
  --0-0-/-2-2-2-2--  
  --2-2-/-4-4-4-4--
  --2-2-/-4-4-4-4-- 
  --2-2-/-4-4-4-4--
  --0-0-/-2-2-2-2--
  -----------------

That is my acoustic version of untitled please let me know if you 
have the solo ¡¡EnJOy It!!
            
Hard to play? Try these video lessons and learn fast. | Correct




comments powered by Disqus
↑ Back to top | Tablatures and chords are parodies/interpretations of the original songs. You may use it for private study, scholarship, research or language learning purposes only