» » »

Smashing Pumpkins, Ugly Tabs (ver.1)

Artists:  A B C D E F G H I J K L M N O P Q R S T U V W X Y Z # 

Ugly Tabs (ver.1)

Smashing Pumpkins Tabs
 Rating:
4/5 (4 votes)
Ugly lessons Tabs too difficult? Try these video lessons and learn fast
                Ugly by ZEROthirtythree
This is a great song and is off the 1979 single
-------All of this song is palm muted---------
The tuning is shown below
Well, here you go...

(1)Play like 10 times, im not sure though, then play the verse...
Eb-|----|    (2)Verse-----------------------------------------
Bb-|----|            -----------------------------------------
Gb-|----|            -----------------------------------------
Db-|-2--|            -2-2-2-2-5-5-5-5-10-10-10-10-10-10-10-10-
Ab-|-2--|            -2-2-2-2-5-5-5-5-10-10-10-10-10-10-10-10-
Eb-|-0--|            -0-0-0-0-3-3-3-3--8--8--8--8--8--8--8--8-

(3) Chorus
|------------------------------------------------------------------|
|------------------------------------------------------------------|
|------------------------------------------------------------------|
|-2-2-2-2-2-2-2-2--5-5-5-5-5-5-5-5--10-10-10-10-10-10-10-10--------|
|-2-2-2-2-2-2-2-2--5-5-5-5-5-5-5-5--10-10-10-10-10-10-10-10--------|
|-0-0-0-0-0-0-0-0--3-3-3-3-3-3-3-3---8--8--8--8--8--8--8--8--------|

|--------------------|
|--------------------|
|--------------------|
|-7-7-7-7-7-7-7-7----|
|-7-7-7-7-7-7-7-7----|
|-5-5-5-5-5-5-5-5----|

|--------------------------------------------|
|--------------------------------------------|
|--------------------------------------------|
|-2-2-2-2--5-5-5-5--10-10-10-10-10-10-10-10--|
|-2-2-2-2--5-5-5-5--10-10-10-10-10-10-10-10--|
|-0-0-0-0--3-3-3-3---8--8--8--8--8--8--8--8--|

|------------------------------------|
|------------------------------------|
|------------------------------------|
|-2-2-2-2--5-5-5-5--10-10-10-10--7-7-|
|-2-2-2-2--5-5-5-5--10-10-10-10--7-7-|
|-0-0-0-0--3-3-3-3---8--8--8--8--5-5-|

|--------------------------------------|
|--------------------------------------|
|--------------------------------------|
|-2-2-2-2--5-5-5-5--10-10-10-10--7-7---|
|-2-2-2-2--5-5-5-5--10-10-10-10--7-7---|
|-0-0-0-0--3-3-3-3---8--8--8--8--5-5---|

|---------------------------------------------|
|---------------------------------------------|
|---------------------------------------------|
|-2-2-2-2--5-5-5-5--10-10-10-10-10-10-10-10---|
|-2-2-2-2--5-5-5-5--10-10-10-10-10-10-10-10---|
|-0-0-0-0--3-3-3-3---8--8--8--8--8--8--8--8---|

(4) 2nd Verse
|--------------------------------------|
|--------------------------------------|
|--------------------------------------|
|-2-2-2-2--5-5-5-5--10-10-10-10-10-10--|
|-2-2-2-2--5-5-5-5--10-10-10-10-10-10--|
|-0-0-0-0--3-3-3-3---8--8--8--8--8--8--|

|-------------------------------------------|
|-------------------------------------------|
|-------------------------------------------|
|-2-2-2-2--5-5-5-5--10-10-10-10--7-7--------|
|-2-2-2-2--5-5-5-5--10-10-10-10--7-7--------|
|-0-0-0-0--3-3-3-3---8--8--8--8--5-5--------|

|---------------------------------------|
|---------------------------------------|
|---------------------------------------|
|-2-2-2-2--5-5-5-5--10-10-10-10-10-10---|
|-2-2-2-2--5-5-5-5--10-10-10-10-10-10---|
|-0-0-0-0--3-3-3-3---8--8--8--8--8--8---|

|-------------------------------------|
|-------------------------------------|
|-------------------------------------|
|-2-2-2-2--5-5-5-5--10-10-10-10--7-7--|
|-2-2-2-2--5-5-5-5--10-10-10-10--7-7--|
|-0-0-0-0--3-3-3-3---8--8--8--8--5-5--|

(5)
|------------------------------------------|
|------------------------------------------|
|------------------------------------------|
|-12-12-12-12-12-12--10-10-10-10-10--2-2-2-|
|-12-12-12-12-12-12--10-10-10-10-10--2-2-2-|
|-10-10-10-10-10-10---8--8--8--8--8--0-0-0-|

(6)
|-------------------------------------------|
|-------------------------------------------|
|-------------------------------------------
|-2-2-2-2--5-5-5-5--10-10-10-10-10-10-10-10-|
|-2-2-2-2--5-5-5-5--10-10-10-10-10-10-10-10-|
|-0-0-0-0--3-3-3-3---8--8--8--8--8--8--8--8-|

|---------------------------------------------
|---------------------------------------------|
|---------------------------------------------|
|-2-2-2-2--5-5-5-5--10-10-10-10-10-10-10-10---|
|-2-2-2-2--5-5-5-5--10-10-10-10-10-10-10-10---|
|-0-0-0-0--3-3-3-3---8--8--8--8--8--8--8--8---|

|-------------------------------------------|
|-------------------------------------------|
|-------------------------------------------|
|-2-2-2-2--5-5-5-5--10-10-10-10-10-10-10-10-|
|-2-2-2-2--5-5-5-5--10-10-10-10-10-10-10-10-|
|-0-0-0-0--3-3-3-3---8--8--8--8--8--8--8--8-|

|-------------------------------------|
|-------------------------------------|
|-------------------------------------|
|-2-2-2-2--5-5-5-5--10-10-10-10--7-7--|
|-2-2-2-2--5-5-5-5--10-10-10-10--7-7--|
|-0-0-0-0--3-3-3-3---8--8--8--8--5-5--|

|-------------------------------------------|
|-------------------------------------------|
|-------------------------------------------|
|-2-2-2-2--5-5-5-5--10-10-10-10-10-10-10-10-|
|-2-2-2-2--5-5-5-5--10-10-10-10-10-10-10-10-|
|-0-0-0-0--3-3-3-3---8--8--8--8--8--8--8--8-|

|--------------------------------------|
|--------------------------------------|
|--------------------------------------|
|-2-2-2-2--5-5-5-5--10-10-10-10--7-7---|
|-2-2-2-2--5-5-5-5--10-10-10-10--7-7---|
|-0-0-0-0--3-3-3-3---8--8--8--8--5-5---|

|-------------------------------------------|
|-------------------------------------------|
|-------------------------------------------|
|-2-2-2-2--5-5-5-5--10-10-10-10-10-10-10-10-|
|-2-2-2-2--5-5-5-5--10-10-10-10-10-10-10-10-|
|-0-0-0-0--3-3-3-3---8--8--8--8--8--8--8--8-|

|---------------------------------------------
|---------------------------------------------|
|---------------------------------------------|
|-2-2-2-2--5-5-5-5--10-10-10-10-10-10-10-10---|
|-2-2-2-2--5-5-5-5--10-10-10-10-10-10-10-10---|
|-0-0-0-0--3-3-3-3---8--8--8--8--8--8--8--8---|

Play them like this.... 1, 2(x4), 3, 4, 3, 5(x9), 6

I don't look in the mirror
I don't like what I see staring back at me
Everything is clearer
I'll never see what you see
It's not me
So beautiful and free
I'll never be what you need
Can't help at all
I was born so beautiful
But now I'm ugly 

And I rot in my skin
As a piece of me dies everyday
I know I'm nothing
I know there's nothing I can say
To change
The judgment in their ways
I'll never be what you need
Can't help at all
My love was so beautiful
But now I'm ugly
Yeah... 

I'm good enough, but I don't care
I'm good enough, but I'm not there
I'm good enough, but I don't care
The sun is out, but I'm not there 

(I can go anywhere) I'm good enough, but I don't care
(...somewhere)
(I can go anywhere) The sun is out, but I'm not there
(...somewhere)
(I can go anywhere) I'm good enough (...somewhere)
(I can go anywhere) I'm good enough (...somewhere) 

I don't look in the mirror
I don't like what I see staring back at me
Everything is clearer
I'll never see what you see
And I rot in my skin 
As a piece of me dies everyday
I know I'm nothing
Because I'm ugly
            
Submit corrections

comments powered by Disqus
↑ Back to top | Smashing Pumpkins Tabs for Ugly. Lyrics for acoustic guitar and electric guitar. Tablatures and chords are parodies/interpretations of the original songs. You may use it for private study, scholarship, research or language learning purposes only