» » »

Transformer Tabs (ver.2)

Artists:  A B C D E F G H I J K L M N O P Q R S T U V W X Y Z # 

Transformer Tabs (ver.2)

Smashing Pumpkins
Rating:
0/5 (0 votes)

Hard to play? Try these video lessons and learn fast.
                Verse Riff(clean guitar)
E|---------------------------------------------
B|---------------------------------------------
G|---------------------------------------------
D|-4-4-4--3--2-2--4-4-4--3--2--4-4-4--3--2--4--
A|-4-4-4--3--2-2--4-4-4--3--2--4-4-4--3--2--4--
E|-2-2-2--1--0-0--2-2-2--1--0--2-2-2--1--0--2--

Chorus(dist. guitar)
E|----------------------------------
B|----------------------------------
G|----------4-4-4-------------------   Repeat 4x
D|-7-7-7-7--4-4-4--4-4-4-4-4-4-4-4--
A|-7-7-7-7--2-2-2--4-4-4-4-4-4-4-4--
E|-5-5-5-5---------2-2-2-2-2-2-2-2--

E|-----------------------------------
B|-----------------------------------
G|------------------4-4-4-4-4-4-4-4--
D|-2-2-2-2-2-2-2-2--4-4-4-4-4-4-4-4--
A|-2-2-2-2-2-2-2-2--2-2-2-2-2-2-2-2--
E|-0-0-0-0-0-0-0-0-------------------

Pre-chorus(played once before the 2nd chorus)
E|------------------------------------------------
B|------------------------------------------------
G|----------------4-4-4-4-4-4-4-4-----------------
D|-2-2-2-2-2-2-2--4-4-4-4-4-4-4-4--4-4-4-4-4-4-4--
A|-2-2-2-2-2-2-2--2-2-2-2-2-2-2-2--4-4-4-4-4-4-4--
E|-0-0-0-0-0-0-0-------------------2-2-2-2-2-2-2--
            
Hard to play? Try these video lessons and learn fast. | Correct




comments powered by Disqus
↑ Back to top | Tablatures and chords are parodies/interpretations of the original songs. You may use it for private study, scholarship, research or language learning purposes only