» » »

Smashing Pumpkins, This Time Tabs (ver.1)

Artists:  A B C D E F G H I J K L M N O P Q R S T U V W X Y Z # 

This Time Tabs (ver.1)

Smashing Pumpkins Tabs
 Rating:
4/5 (4 votes)
This Time lessons Tabs too difficult? Try these video lessons and learn fast
                TUNNG ::>you should no by now really and if you dont
         go outside bury a little hole for yourself
         and put ur head in it
         Eb tuning

INTRO/VERSES : arranged for 1 guitar
   B            F#         E
e|--------2--------------------------2---|-----------
b|---------------------------------------|-----------
g|-----4-----------------------4---------|-----------
d|---------------------------------------|-----------
a|--2------------------------------------|-----------
E|---------------2---------0-------------|----6h7---

               <<<<<2 GUITARS>>>>

INTRO/VERSES : Guitar 1
    B                F#               E
e|---------------|-----------------|----------------
b|---------------|-----------------|----------------
g|--6-6-6-6-6-6--|--3-3-3-3-3-3-3--|--1-1-1-1-1-1-1-
d|--9-9-9-9-9-9--|--4-4-4-4-4-4-4--|--2-2-2-2-2-2-2-
a|--9-9-9-9-9-9--|--4-4-4-4-4-4-4--|--2-2-2-2-2-2-2-
E|--7-7-7-7-7-7--|--2-2-2-2-2-2-2--|--0-0-0-0-0-0-0-

Guitar 2
e|--------2------|-----------------|---------2------
b|----4----------|-----------------|------4---------
g|-4-------------|-----------------|--4-------------
d|---------------|-----------------|----------------
a|---------------|-----------------|----------------
E|---------------|-----------------|----------------

CHORUS : They change from time to time from what i hear
    B              F#                C#
e|--------------------------------------------------
b|--------------------------------------------------
g|--6-6-6-6-6-6----2-2-2-2-2-2-2-----6-6-6-6-6-6-6--
d|--9-9-9-9-9-9----4-4-4-4-4-4-4-----6-6-6-6-6-6-6--
a|--9-9-9-9-9-9----4-4-4-4-4-4-4-----4-4-4-4-4-4-4--
E|--7-7-7-7-7-7----2-2-2-2-2-2-2--------------------

Sometimes they move to this but stick with the one
above you cant really hear the difference on cd
    B                F#               E
e|---------------|-----------------|----------------
b|---------------|-----------------|----------------
g|--6-6-6-6-6-6--|--3-3-3-3-3-3-3--|--1-1-1-1-1-1-1-
d|--9-9-9-9-9-9--|--4-4-4-4-4-4-4--|--2-2-2-2-2-2-2-
a|--9-9-9-9-9-9--|--4-4-4-4-4-4-4--|--2-2-2-2-2-2-2-
E|--7-7-7-7-7-7--|--2-2-2-2-2-2-2--|--0-0-0-0-0-0-0

SOLO :  w/ verse chords
e|---11---16--14-----16--11----7--------------------
b|--------------------------------------------------
g|--------------------------------------------------
d|--------------------------------------------------
a|--------------------------------------------------
E|--------------------------------------------------

After solo thing something like this is played over chords
e|--11p9h11p9h11p9h11p9-etc-----14------------------
b|--------------------------------------------------
g|--------------------------------------------------
d|--------------------------------------------------
a|--------------------------------------------------
E|--------------------------------------------------
            
Submit corrections

comments powered by Disqus
↑ Back to top | Smashing Pumpkins Tabs for This Time. Lyrics for acoustic guitar and electric guitar. Tablatures and chords are parodies/interpretations of the original songs. You may use it for private study, scholarship, research or language learning purposes only