» » »

Smashing Pumpkins, Thirty Three Tabs (ver.1)

Artists:  A B C D E F G H I J K L M N O P Q R S T U V W X Y Z # 

Thirty Three Tabs (ver.1)

Smashing Pumpkins Tabs
Rating:
0/5 (0 votes)
Thirty Three lessons Tabs too difficult? Try these video lessons and learn fast
                This song is tuned to a drop G, (E G D G B e), and there may be one guitar playing an octave higher

e-------------------------------------------------0------------------
B--------------------------------3----------------3------------------
G--------------------------------0----------------2------------------
D-5-4-5-7-5-4-5--5-4-5-7-9-7-----5----------------0------------------
G-0-0-0-0-0-0-0--0-0-0-0-0-0-----5-----------------------------------
E--------------------------------------------------------------------
				 Speak to me in al language I can hear

e-------------------------------------------------0------------------
B-8-7-8-10-8-7-8--8-7-8-10-12-10-3----------------3------------------
G-0-0-0-0--0-0-0--0-0-0--0--0—-0-0----------------2------------------
D--------------------------------5----------------0------------------
G--------------------------------5-----------------------------------
E--------------------------------------------------------------------

Any pumpkins song at all I can tab
Love to all
Peace out,
Peach
            
Submit corrections

comments powered by Disqus
↑ Back to top | Smashing Pumpkins Tabs for Thirty Three. Lyrics for acoustic guitar and electric guitar. Tablatures and chords are parodies/interpretations of the original songs. You may use it for private study, scholarship, research or language learning purposes only