>
 >
Thirty Three 1

Thirty Three 1 Guitar Tabs

Smashing Pumpkins - Thirty Three 1 chords, tabs, tablatures, lyrics

Guitar lessons | Add/correct | Request | Top 50 tabs Artists:  A B C D E F G H I J K L M N O P Q R S T U V W X Y Z 0-9

Thirty Three 1 Guitar Tabs – Smashing Pumpkins

CD, Sheet music, Poster

Do you like Thirty Three 1? Share with your friends now
Bass TabsChordsTabsTabs v2
This song is tuned to a drop G, (E G D G B e), and there may be one guitar playing an octave higher

e-------------------------------------------------0------------------
B--------------------------------3----------------3------------------
G--------------------------------0----------------2------------------
D-5-4-5-7-5-4-5--5-4-5-7-9-7-----5----------------0------------------
G-0-0-0-0-0-0-0--0-0-0-0-0-0-----5-----------------------------------
E--------------------------------------------------------------------
				 Speak to me in al language I can hear

e-------------------------------------------------0------------------
B-8-7-8-10-8-7-8--8-7-8-10-12-10-3----------------3------------------
G-0-0-0-0--0-0-0--0-0-0--0--0-0-0----------------2------------------
D--------------------------------5----------------0------------------
G--------------------------------5-----------------------------------
E--------------------------------------------------------------------

Any pumpkins song at all I can tab
Love to all
Peace out,
Peach





Comments


Popular Smashing Pumpkins tabs & chords
Bullet With Butterfly Wings Bass Tabs
Bullet With Butterfly Wings 7 Bass Tabs
Crush 3 Bass Tabs
Daphne Descends 1 Bass Tabs
Once Apon A Time Bass Tabs
Song For A Son Bass Tabs
7 Shades Of Black Chords
Bullet With Butterfly Wings 3 Chords
Daydream 1 Chords
Eye 2 Tabs


Song lyrics



↑ Back to top | Tablatures and chords are parodies/interpretations of the original songs. You may use it for private study, scholarship, research or language learning purposes only
© 2014 AZChords.com Contact us | Privacy policy | DMCA | Add/correct tabs | Request tabs | Top 50 tabs