>
 >
The Imploding Voice

The Imploding Voice Guitar Tabs

Smashing Pumpkins - The Imploding Voice chords, tabs, tablatures, lyrics

Guitar lessons | Add/correct | Request | Top 50 tabs Artists:  A B C D E F G H I J K L M N O P Q R S T U V W X Y Z 0-9

The Imploding Voice Guitar Tabs – Smashing Pumpkins

CD, Sheet music, Poster

Do you like The Imploding Voice? Share with your friends now
Tabs
Artist - Smashing Pumpkins
Song - The Imploding Voice
Album - Machina/The Machines Of God

Tuning - C, F, Bb, Eb, G, C

Note - The guitars where tuned slightly sharp on this song.

Intro

|-------------------------------------------------------|
|-------------------------------------------------------|
|-------------------------------------------------------|
|-7-7-7-7-7-7-7-7---7-7-7-7---7-7-7-7-7-7-7-7---7-7-7-7-|
|-7-7-7-7-7-7-7-7---7-7-7-7---7-7-7-7-7-7-7-7---7-7-7-7-|
|-5-5—5-5—5-5—5-5---5-5-5-5---5-5—5-5—5-5—5-5---5-5-5-5-|

First Verse

|-------------------------------------------------------------|
|-------------------------------------------------------------|
|------------------66-66-66-66-6666-77-77-77-77-7777----------|
|-77—77—77—77—7777—66—66—66—66—6666—77—77—77—77—7777—99—99—99-|
|-77—77—77—77—7777—44—44—44—44—4444—55—55—55—55—5555—99—99—99-|
|-55—55—55—55—5555—44—44—44—44—4444—55—55—55—55—5555—77—77—77-|

|------------------------------------------------------------|
|------------------------------------------------------------|
|---------99-99-99-99-9999------------------77-77-77-77-7777-|
|-99—9999—99—99—99—99—9999—99—99—99—99—9999—77—77—77—77—7777-|
|-99—9999—77—77—77—77—7777—99—99—99—99—9999—55—55—55—55—5555-| 
|-77—7777—77—77—77—77—7777—77—77—77—77—7777—55—55—55—55—5555-|

|---—--—------|
|---—--—------|
|---—--—------|
|-77—77—77777-|
|-77—77—77777-|
|-55—55—55555-|

Pre-Chorus

|---------------------------------------|
|---------------------------------------|
|---------------------------------------|
|-3---4---77—77—77—77/11/12/11/2/3---4/-|
|-3---4---77—77—77—77/11/12/11/2/3---4/-|
|-1---2---55—55—55—55/9/-10/-9/0/1---2/-|

Chorus 

|------------------------------------------------------|
|------------------------------------------------------|
|------------------------------------------------------|
|-9---11/12/11/—7-------9---11---7---6---77—77—77—7777-|
|-9---11/12/11/—7-------9---11---7---6---77—77—77—7777-|
|-7----9/10/9/—-5-------7----9---5---4---55—55—55—5555-|

|----------------------------|
|----------------------------|
|--------------77-77-77-7777-|
|-11---9---6---77—77—77—7777-|
|-11---9---6---55—55—55—5555-|
|-9----7---4---55—55—55—5555-|

Second Verse

|---------------------------------------------------------|
|---------------------------------------------------------|
|---------------66-66-66-6666-77-77-77-7777---------------|
|-77—77—77—7777—66—66—66—6666—77—77—77—7777—77—77—77—7777-|
|-77—77—77—7777—44—44—44—4444—55—55—55—5555—77—77—77—7777-|
|-55—55—55—5555—44—44—44—4444—55—55—55—5555—55—55—55—5555-|

|--------------------------------------------|
|--------------------------------------------|
|--------------------------------------------|
|-77—77—77—7777—44—44—44—4444—33—33—33—3333/-|
|-77—77—77—7777—44—44—44—4444—33—33—33—3333/-|
|-55—55—55—5555—22—22—22—2222—11—11—11—1111/-|

Pre-Chorus

|------------------------------------------------------|
|------------------------------------------------------|
|------------------------------------------------------|
|-4-4-4-4-4-4-4-2---4-4-4-4-4-4-4-2---4-4-4-4-4-4-4-2/-|
|-4-4-4-4-4-4-4-2---4-4-4-4-4-4-4-2---4-4-4-4-4-4-4-2/-|
|-2-2-2-2-2-2-2-0---2-2-2-2-2-2-2-0---2-2-2-2-2-2-2-0/-|

|------------------------------------------------------|
|------------------------------------------------------|
|------------------------------------------------------|
|-9---11/12/11/—7-------9---11---7---6---77—77—77—7777-|
|-9---11/12/11/—7-------9---11---7---6---77—77—77—7777-|
|-7----9/10/9/—-5-------7----9---5---4---55—55—55—5555-|

|----------------------------|
|----------------------------|
|--------------77-77-77-7777-|
|-11---9---6---77—77—77—7777-|
|-11---9---6---55—55—55—5555-|
|-9----7---4---55—55—55—5555-|

Middle 8

|------------------------------------------------------------|
|------------------------------------------------------------|
|------------------------------------------------------------|
|-222—22—2—222—4444—222—22—2—222—4444—222—22—2—4444—222—22-2-|
|-222—22—2—222—4444—222—22—2—222—4444—222—22—2—4444—222—22-2-|
|-000—00—0—000—2222—000—00—0—000—2222—000—00—0—2222—000—00—0-|

|--------------------|
|--------------------|
|--------------------|
|-3---4---5---6------|
|-3---4---5---6------|
|-1---2---3---4—x///-|

|-------------------------------------------------------------|
|-------------------------------------------------------------|
|------------------66-66-66-66-6666-77-77-77-77-7777----------|
|-77—77—77—77—7777—66—66—66—66—6666—77—77—77—77—7777—99—99—99-|
|-77—77—77—77—7777—44—44—44—44—4444—55—55—55—55—5555—99—99—99-|
|-55—55—55—55—5555—44—44—44—44—4444—55—55—55—55—5555—77—77—77-|

|------------------------------------------------------------|
|------------------------------------------------------------|
|---------99-99-99-99-9999------------------77-77-77-77-7777-|
|-99—9999—99—99—99—99—9999—99—99—99—99—9999—77—77—77—77—7777-|
|-99—9999—77—77—77—77—7777—99—99—99—99—9999—55—55—55—55—5555-| 
|-77—7777—77—77—77—77—7777—77—77—77—77—7777—55—55—55—55—5555-|

|---—--—------|
|---—--—------|
|---—--—------|
|-77—77—77777-|
|-77—77—77777-|
|-55—55—55555-|

|---------------------------------------|
|---------------------------------------|
|---------------------------------------|
|-3---4---77—77—77—77/11/12/11/2/3---4/-|
|-3---4---77—77—77—77/11/12/11/2/3---4/-|
|-1---2---55—55—55—55/9/-10/-9/0/1---2/-|

|------------------------------------------------------|
|------------------------------------------------------|
|------------------------------------------------------|
|-9---11/12/11/—7-------9---11---7---6---77—77—77—7777-|
|-9---11/12/11/—7-------9---11---7---6---77—77—77—7777-|
|-7----9/10/9/—-5-------7----9---5---4---55—55—55—5555-|

|----------------------------|
|----------------------------|
|--------------77-77-77-7777-|
|-11---9---6---77—77—77—7777-|
|-11---9---6---55—55—55—5555-|
|-9----7---4---55—55—55—5555-|

Outro

|------------------------------------------------------------|
|------------------------------------------------------------|
|------------------------------------------------------------|
|-222—22—2—222—4444—222—22—2—222—4444—222—22—2—4444—222—22-2-|
|-222—22—2—222—4444—222—22—2—222—4444—222—22—2—4444—222—22-2-|
|-000—00—0—000—2222—000—00—0—000—2222—000—00—0—2222—000—00—0-|

And Thats it, this was the very first thing I tabbed and I put it on UGO.


LISTEN TO THE MELVINS!!





Comments


Popular Smashing Pumpkins tabs & chords
I Of The Mourning Bass Tabs
Set The Ray To Jerry 1 Bass Tabs
Muzzle 1 Chords
Suffer Chords
The Celestials 1 Chords
A Stitch In Time Tabs
Fol 1 Tabs
Real Love Tabs
The Rose March Intro Tabs
Stand Inside Your Love Ukulele


Song lyrics



↑ Back to top | Tablatures and chords are parodies/interpretations of the original songs. You may use it for private study, scholarship, research or language learning purposes only
© 2014 AZChords.com Contact us | Privacy policy | DMCA | Add/correct tabs | Request tabs | Top 50 tabs