>
 >
The Ethers Tragic

The Ethers Tragic Guitar Tabs

Smashing Pumpkins - The Ethers Tragic chords, tabs, tablatures, lyrics

Guitar lessons | Add/correct | Request | Top 50 tabs Artists:  A B C D E F G H I J K L M N O P Q R S T U V W X Y Z 0-9

The Ethers Tragic Guitar Tabs – Smashing Pumpkins

CD, Sheet music, Poster

Do you like The Ethers Tragic? Share with your friends now
Tabs

drop D


Guitar 1

Eb|---------------------------------------------------------------------|
Bb|-------9-----------------------------9-----------------------------9-|
Gb|---------------------------------------------------5-----5-----------|
Db|---6-------6-------3-----3---3---6-------6-------3---3-----3---6-----|
Ab|-8---8---8---8---5-----5-------8---8---8---8---5-------5-----8---8---|
D |---------------0-----0-----0-----------------0-----------------------|

Eb|-----------------------------3-------------3-------------------------|
Bb|---------------------------------------------------------9-----------|
Gb|-----------------------------------0---------0-----------------------|
Db|---6-------3-----3-------3-----3-----3---3-----3-----6-------6-------|
Ab|-8---8---5-----5-----5-----3-----3-----------------8---8---8---8---5-|
D |-------0-----0-----0---3---------------3---------3---------------0---|

Eb|---------------------------------------------------------------------|
Bb|-------------------9---------------------------9---------------------|
Gb|---------------------------------2-5---------------------------------|
Db|-3-----3---3---6-------6-------3-------3---6-------6-------3-----3---|
Ab|-----5-------8---8---8---8---5-------5---8---8---8---8---5-----5-----|
D |---0-----0-----------------0---------------------------0-----0-----0-|

Eb|---------3-------------3---------------------------------------------|
Bb|-------------------------------------9-----------------------------9-|
Gb|---------------0---------0-------------------------------------------|
Db|-3---3-----3-----3---3-----3-----6-------6-------3-----3---3---6-----|
Ab|-------3-----3-----------------8---8---8---8---5-----5-------8---8---|
D |---3---------------3---------3---------------0-----0-----0-----------|

Eb|---------------------------------------------------------------------|
Bb|-----------------------------9---------------------------------------|
Gb|-------------5-----5-------------------------------------------------|
Db|---6-------3---3-----3---6-------6-------3-----3----/----8--/----1---|
Ab|-8---8---5-------5-----8---8---8---8---5-----5-----5/--8---8/--1-----|
D |-------0-----------------------------0-----0-----0--/8------/1-----0-|

Eb|---------------------------------------------------------------------|
Bb|---------------------------3-3-------------3-------------------------|
Gb|---------------------------3-3-2/3---3-------3-7-----7-----7-----7---|
Db|---0--/----8--/----1-----0-5-5-----5---5-------7---7---7-----7-----7-|
Ab|-0----/--8---8/--1-----0---5-5-----------5-----8---------8-----8-----|
D |------/8------/1-----0-------------------------0-0-------------------|

Eb|-----------------3-----3-----3-----1-1-1-----------------------------|
Bb|-------1-1-1-1-1-1-1-1-1-1-1-1-1-1-1-1-1-3-3-3-----------------------|
Gb|---7---0-0-0-0-0-0-0-0-0-0-0-0-0-0-0-0-0-3-3-3-2-3-0-3-3-2-3-0-7-7-7-|
Db|-----7-2-2-2-2-2-2-2-2-2-2-2-2-2-2-2-2-2-5-5-5-----------------7-7-7-|
Ab|-8-----3-3-3-3-3-3-3-3-3-3-3-3-3-3-3-3-3-5-5-5-----------------8-8-8-|
D |---------------------------------------------------------------0-0-0-|

Eb|-----------------------------------------------------------3-----3---|
Bb|-3-3-------------3-------------------------------1-1-1-1-1-1-1-1-1-1-|
Gb|-3-3-2/3---3-------3-7-----7-----7-----7-----7---0-0-0-0-0-0-0-0-0-0-|
Db|-5-5-----5---5-------7---7---7-----7-----7-----7-2-2-2-2-2-2-2-2-2-2-|
Ab|-5-5-----------5-----8---------8-----8-----8-----3-3-3-3-3-3-3-3-3-3-|
D |---------------------0-0---------------------------------------------|

Eb|---3-----1-1-1-------------------------------------------------------|
Bb|-1-1-1-1-1-1-1-3-3-3-3-3-3-3-3-3-3-3-3-3-3-3-3-3-------------9-------|
Gb|-0-0-0-0-0-0-0-3-3-3-3-3-3-3-3-3-3-3-3-3-3-3-3-3-----7---------------|
Db|-2-2-2-2-2-2-2-5-5-5-5-5-5-5-5-5-5-5-5-5-5-5-5-5-----7---6-------6---|
Ab|-3-3-3-3-3-3-3-5-5-5-5-5-5-5-5-5-5-5-5-5-5-5-5-5---8-8-8---8---8---8-|
D |-------------------------------------------------0-0-0---------------|

Eb|---------------------------------------------------------------------|
Bb|-----------------------9-----------------------------9---------------|
Gb|-------------------------------------5-----5-------------------------|
Db|-----3-----3---3---6-------6-------3---3-----3---6-------6-------3---|
Ab|---5-----5-------8---8---8---8---5-------5-----8---8---8---8---5-----|
D |-0-----0-----0-----------------0-----------------------------0-----0-|

Eb|---------------------------------------------------------------------|
Bb|---------------------------------------------------------------------|
Gb|-----------------------------------------------------0-----0---------|
Db|---3----/----8--/----1-----0--/----8--/----1-----0-----3-----3---3---|
Ab|-5-----5/--8---8/--1-----0----/--8---8/--1-----0---3-----3-----3---3-|
D |-----0--/8------/1-----0------/8------/1-----0-----------------------|

Eb|---------------------------------------------------------------------|
Bb|---------------------------------------------------------------------|
Gb|-0-----0-----------------------------------------0-----0---------0---|
Db|---3-----3---0---6-----6---------6-----6-----------3-----3---3-----3-|
Ab|-----3-----3-------6-----6---6-----6-----6---0-3-----3-----3---3-----|
D |---------------6-----6-----6---6-----6-----6-------------------------|

Eb|--------------------------------------------------------------------|
Bb|--------------------------------------------------------------------|
Gb|---0----------------------------------------------------------------|
Db|-----3---0---6-----6---------6-----6--------------------------------|
Ab|-3-----3-------6-----6---6-----6-----6------------------------------|
D |-----------6-----6-----6---6-----6-----6----------------------------|

Guitar 2

Eb|---------------------------------------------------------------------|
Bb|--9-9-9-9-9-10-10-10-10-10-------------------------------------------|
Gb|---------------------------------------------------------------------|
Db|---------------------------------------------------------------------|
Ab|---------------------------------------------------------------------|
D |---------------------------------------------------------------------|
     This fades in at about (0:22)

Guitar 3 (Bass-y sounding)

Eb|---------------------------------------------------------------------|
Bb|---------------------------------------------------------------------|
Gb|---------------------------------------------------------------------|
Db|---------------------------------------------------------------------|
Ab|---------------------------------------------------------------------|
D |--3-5-6-6-6-6-7-7-0-0-7-0-0-7-0--------------------------------------|

At about 1:00 guitar 2 begins playing the chords guitar 1 is picking.
These chords are:

-----------|
-3-----1---|
-3--7--0---|
-5--7--2---|
-5--8--3---|
----0------|

The end of the song is just basically a little jam with all three guitars.
Guitars 1 and 3 each do a little walkdown near the end.
There's a pick scrape in there too.
The strumming pattern is fairly straight-forward.





Comments


Popular Smashing Pumpkins tabs & chords
Plume Bass Tabs
Bullet With Butterfly Wings 3 Chords
Im Doing The Best I Can Chords
The Crying Tree Of Mercury Chords
Heavy Metal Machine 1 Tabs
Hello Kitty Kat 2 Tabs
Shame 1 Tabs
The Sound Of Silence Tabs
Tristessa Tabs
Untitled Tabs


Song lyrics



↑ Back to top | Tablatures and chords are parodies/interpretations of the original songs. You may use it for private study, scholarship, research or language learning purposes only
© 2014 AZChords.com Contact us | Privacy policy | DMCA | Add/correct tabs | Request tabs | Top 50 tabs