>
 >
The End Is The Beginning Is The End Live

The End Is The Beginning Is The End Live Guitar Tabs

Smashing Pumpkins - The End Is The Beginning Is The End Live chords, tabs, tablatures, lyrics

Guitar lessons | Add/correct | Request | Top 50 tabs Artists:  A B C D E F G H I J K L M N O P Q R S T U V W X Y Z 0-9

The End Is The Beginning Is The End Live Guitar Tabs – Smashing Pumpkins

CD, Sheet music, Poster

Do you like The End Is The Beginning Is The End Live? Share with your friends now
Tabs
------------------------------------------------------------------------------------
------------------------------------------------------------------------------------

Tuning: 1/2 Step Down

for it, It's worth it if you like this song, it's much faster than the soundtrack.
the first 3 parts palm mute the eb string. 
Billy: 
|-----------------------0------------------------0---------------------------|
|-----------------------5------------------------5------------------------5--|
|-----------------------4------------------------4------------------------4--|
|----------------------------------------------------------------------------|
|----------------------------------------------------------------------------|
|-/6-6-6-6-6-6-6-6h7~-0----/6-6-6-6-6-6-6-6h7~-0---/6-6-6-6-6-6-6-6h7~-0-----|
James:
|--------------------------------------------------------------------------0-|
|--------------------------------------------------------------------------5-|
|--------------------------------------------------------------------------4-|
|----------------------------------------------------------------------------|
|-------------------------------------------7~-7~-\5~------------------------|
|-0h3-/5-6-7-6-5-3-0--/-6-6-6-6-6-6-6-6-6h7~---------/-6-6-6-6-6-6-6-6-6h7~--|
James:
|-------------------------0-------------------------------------------------------------|
|------------------------5---1616161616161616/1717171717--1616161616161616/1717171717---|
|-----------------------4----1414141414141414-1414141414--1414141414141414-1414141414---|
|----------------------0----------------------------------------------------------------|
|---------------------------------------------------------------------------------------|
|-0h3-/5-6-7-6-5-3-0--------------------------------------------------------------------|
James:
|---------------------------------------------------------------------------------------|
|---------------------------------------------------------------------------------------|
|-1616161616161616/1717171717--1616161616161616/1717171717--1616161616161616/1717171717-|
|-1414141414141414-1414141414--1414141414141414-1414141414--1414141414141414-1414141414-|
|---------------------------------------------------------------------------------------|
|---------------------------------------------------------------------------------------|
Billy:
|---------------------------------------------------------------------------------------|
|---------------------------------------------------------------------------------------|
|---------------------------------------------------------------------------------------|
|---------------------------------------------------------------------------------------|
|-5p3p00000000000-7p0-000000--5p3p00000000000-7p0-0000000--5p3p00000000000-7p0-000000---|
|-5p3p00000000000-7p0-000000--5p3p00000000000-7p0-0000000--5p3p00000000000-7p0-000000---|
Billy:
|----------------------|
|----------------------|
|----------------------|
|----------------------|
|----------------------|
|--0h3-/5-6-7-6-5-3-0--|
James:
|----------------------|
|----------------------|
|----------------------|
|----------------------|
|----------------------|
|--0h3-/5-6-7-6-5-3-0--|
Billy:
 The Sewers
|--------------------------------------------------------------|
|--------------------------------------------------------------|
|--------------------------------------------------------------|
|--------------------------------------------------------------|
|--------------------------------------------------------------|
|-00000000-3-55/6\5-5-3h0-00000000---3-5-5/6\5-5-3h0-00000000--|
James:
|--------------------------------------------------------------|
|--------------------------------------------------------------|
|--------------------------------------------------------------|
|--------------------------------------------------------------|
|--------------------------------------------------------------|
|-00000000-3-55/6\5-5-3h0-00000000---5p3p0-000005h7p000000-----|
Billy:
Now I'm With You 
|---------------------------------------------------------------------------|
|---------------------------------------------------------------------------|
|---------------------------------------------------------------------------|
|---------------------------------------------------------------------------|
|-----------------------------------------------666666-333333-555555-333333-|
|-5p3p0-000005h7p000000--5p3p0-000005h7p000000--666666-333333-555555-333333-|
Billy:
Is It Bright Where You Are
|---------------------------------------------------------------------------|
|---------------------------------------------------------------------------|
|-999999999999-9/12121212121212121212121212-12-7777777777777-7\555555555555-|
|-999999999999-9/12121212121212121212121212-12-7777777777777-7\555555555555-|
|-777777777777-7/10101010101010101010101010-10-5555555555555-5\333333333333-|
|---------------------------------------------------------------------------|
James:
|---------------------------------------------------------------------------|
|---------------------------------------------------------------------------|
|-999999999999-9/12121212121212121212121212-12-7777777777777-7\555555555555-|
|---------------------------------------------------------------------------|
|-777777777777-7/10101010101010101010101010-10-5555555555555-5\333333333333-|
|---------------------------------------------------------------------------|
Billy:
In Your Darkest Hour
|------------------------------------------------------------------------------|
|------------------------------------------------------------------------------|
|-999999999999-9/12121212121212121212121212-12-7777777777777-7\555555555555-222|
|-999999999999-9/12121212121212121212121212-12-7777777777777-7\555555555555-222|
|-777777777777-7/10101010101010101010101010-10-5555555555555-5\333333333333-000|
|------------------------------------------------------------------------------|
James:
|------------------------------------------------------------------------------|
|------------------------------------------------------------------------------|
|-999999999999-9/12121212121212121212121212-12-7777777777777-7\555555555555-222|
|---------------------------------------------------------------------------222|
|-777777777777-7/10101010101010101010101010-10-5555555555555-5\333333333333-000|
|------------------------------------------------------------------------------|
Billy:
|----------------------------------------------------|
|----------------------------------------------------|
|----------------------------------------------------|
|-9b-------------------9b----------------------------|
|----------------------------------------------------|
|----0h3-/5-6-7-6-5-3-0---0h3-/5-6-7-6-5-3-0--\-\----|
James:
|----------------------------------------------------|
|----------------------------------------------------|
|----------------------------------------------------|
|----------------------------------------------------|
|----------------------------------------------------|
|----0h3-/5-6-7-6-5-3-0---0h3-/5-6-7-6-5-3-0---\-\---|

And I Am Crystal 
|--------------------------------------------------------------|
|--------------------------------------------------------------|
|--------------------------------------------------------------|
|--------------------------------------------------------------|
|--------------------------------------------------------------|
|-00000000-3-55/6\5-5-3h0-00000000---3-5-5/6\5-5-3h0-00000000--|
James:
|--------------------------------------------------------------|
|--------------------------------------------------------------|
|--------------------------------------------------------------|
|--------------------------------------------------------------|
|--------------------------------------------------------------|
|-00000000-3-55/6\5-5-3h0-00000000---5p3p0-000005h7p000000-----|
James:
|---------------------------------------------------------------------------|
|---------------------------------------------------------------------------|
|---------------------------------------------------------------------------|
|---------------------------------------------------------------------------|
|-----------------------------------------------666666-333333-555555-333333-|
|-5p3p0-000005h7p000000--5p3p0-000005h7p000000--666666-333333-555555-333333-|
Billy:
Is It Bright Where You Are
|---------------------------------------------------------------------------|
|---------------------------------------------------------------------------|
|-999999999999-9/12121212121212121212121212-12-7777777777777-7\555555555555-|
|-999999999999-9/12121212121212121212121212-12-7777777777777-7\555555555555-|
|-777777777777-7/10101010101010101010101010-10-5555555555555-5\333333333333-|
|---------------------------------------------------------------------------|
James:
|---------------------------------------------------------------------------|
|---------------------------------------------------------------------------|
|-999999999999-9/12121212121212121212121212-12-7777777777777-7\555555555555-|
|---------------------------------------------------------------------------|
|-777777777777-7/10101010101010101010101010-10-5555555555555-5\333333333333-|
|---------------------------------------------------------------------------|
Billy:
In Your Darkest Hour
|------------------------------------------------------------------------------|
|------------------------------------------------------------------------------|
|-999999999999-9/12121212121212121212121212-12-7777777777777-7\555555555555-222|
|-999999999999-9/12121212121212121212121212-12-7777777777777-7\555555555555-222|
|-777777777777-7/10101010101010101010101010-10-5555555555555-5\333333333333-000|
|------------------------------------------------------------------------------|
James:
|------------------------------------------------------------------------------|
|------------------------------------------------------------------------------|
|-999999999999-9/12121212121212121212121212-12-7777777777777-7\555555555555-222|
|---------------------------------------------------------------------------222|
|-777777777777-7/10101010101010101010101010-10-5555555555555-5\333333333333-000|
|------------------------------------------------------------------------------|
James:
|---------------------------------------------------------------------------|
|--------------------/13----10-----10--10---/13----10-----10--10------------|
|---33-3b~-feedback------12---10-10--10---------12---10-10--10--------------|
|---------------------------------------------------------------------------|
|---------------------------------------------------------------------------|
|-\-------------------------------------------------------------------------|
Billy:
And I    oh   ohh  oohhh                            aarrrrggghhhhh
|---0~--0~--0~--0-------0-----0-----0----0----0----0-----------------------|
|----------------------0-0---0-0---0-0--0-0--0-0--0-0----------------------|
|--7---7---3---3-3----5-----6-----5----6----5----6-------------------------|
|--------------------0-----0-----0----0----0----0-----66666666666666666666-|
|-----------------------------------------------------66666666666666666666-|
|-----------------------------------------------------66666666666666666666-|
James:
|----------------------------------------------------------|
|----------------------------------------------------------|
|----------------------------------------------------------|
|----------------------------------------------------------|
|-7p6p0-7p6p0-h8p0-----------------------------------------|
|-7p6p0-7p6p0-h8p0--11-11-9~---7p6p0-7p6p0-h8p0--11-11-9~--|
James:
|-----/15-17-\---/15-17\-------/15-17~---------------------|
|----------------------------------------------------------|
|----------------------------------------------------------|
|----------------------------------------------------------|
|----------------------------------------------------------|
|----------------------------------------------------------|
James:
Zeplins Rain Apon Us
|--------------------------------------------------------------------------|
|--------------------------------------------------------------------------|
|--------------------------------------------------------------------------|
|--------------------------------------------------------------------------|
|--------------------------------------------------------------------------|
|-/6-6-6-6-6-6-6-6h7~-0----/6-6-6-6-6-6-6-6h7~-0---/6-6-6-6-6-6-6-6h7~-0---|
Billy:
Is It Bright Where You Are
|---------------------------------------------------------------------------|
|---------------------------------------------------------------------------|
|-999999999999-9/12121212121212121212121212-12-7777777777777-7\555555555555-|
|-999999999999-9/12121212121212121212121212-12-7777777777777-7\555555555555-|
|-777777777777-7/10101010101010101010101010-10-5555555555555-5\333333333333-|
|---------------------------------------------------------------------------|
James:
|---------------------------------------------------------------------------|
|---------------------------------------------------------------------------|
|-999999999999-9/12121212121212121212121212-12-7777777777777-7\555555555555-|
|---------------------------------------------------------------------------|
|-777777777777-7/10101010101010101010101010-10-5555555555555-5\333333333333-|
|---------------------------------------------------------------------------|
Billy:
In Your Darkest Hour
|------------------------------------------------------------------------------|
|------------------------------------------------------------------------------|
|-999999999999-9/12121212121212121212121212-12-7777777777777-7\555555555555-222|
|-999999999999-9/12121212121212121212121212-12-7777777777777-7\555555555555-222|
|-777777777777-7/10101010101010101010101010-10-5555555555555-5\333333333333-000|
|------------------------------------------------------------------------------|
James:
|------------------------------------------------------------------------------|
|------------------------------------------------------------------------------|
|-999999999999-9/12121212121212121212121212-12-7777777777777-7\555555555555-222|
|---------------------------------------------------------------------------222|
|-777777777777-7/10101010101010101010101010-10-5555555555555-5\333333333333-000|
|------------------------------------------------------------------------------|

Strange
|----------------------------------------------------|
|----------------------------------------------------|
|----------------------------------------------------|
|-9b-------------------9b----------------------------|
|----------------------------------------------------|
|----0h3-/5-6-7-6-5-3-0---0h3-/5-6-7-6-5-3-0--\-\----|
Strange
|----------------------------------------------------|
|----------------------------------------------------|
|----------------------------------------------------|
|----------------------------------------------------|
|----------------------------------------------------|
|----0h3-/5-6-7-6-5-3-0---0h3-/5-6-7-6-5-3-0---\-\---|

Strange
|----------------------------------------------------|
|----------------------------------------------------|
|----------------------------------------------------|
|-9b-------------------999b--------------------------|
|----------------------------------------------------|
|----0h3-/5-6-7-6-5-3-0---0h3-/5-6-7-6-5-3-0--\-\----|

|----------------------------------------------------|
|----------------------------------------------------|
|----------------------------------------------------|
|----------------------------------------------------|
|----------------------------------------------------|
|----0h3-/5-6-7-6-5-3-0---0h3-/5-6-7-6-5-3-0---\-\---|


|----------------------------------------------------|
|----------------------------------------------------|
|----------------------------------------------------|
|-9b-------------------9b----------------------------|
|----------------------------------------------------|
|----0h3-/5-6-7-6-5-3-0---0h3-/5-6-7-6-5-3-0--\-\----|

|----------------------------------------------------|
|----------------------------------------------------|
|----------------------------------------------------|
|----------------------------------------------------|
|----------------------------------------------------|
|----0h3-/5-6-7-6-5-3-0---0h3-/5-6-7-6-5-3-0---\-\---|


|----------------------------------------------------|
|----------------------------------------------------|
|----------------------------------------------------|
|-9b-------------------9b\---------------------------|
|----------------------------------------------------|
|----0h3-/5-6-7-6-5-3-0---0h3-/5-6-7-6-5-3-0-10-\-\--|

|----------------------------------------------------|
|----------------------------------------------------|
|----------------------------------------------------|
|----------------------------------------------------|
|----------------------------------------------------|
|----0h3-/5-6-7-6-5-3-0---0h3-/5-6-7-6-5-3-0-10--\-\-|

any questions e-mail me tell me what you think too and rate :)


************************************

| /   slide up
| \   slide down
| h   hammer-on
| p   pull-off
| ~   vibrato
| +   harmonic
| x   Mute note
| b   Bend
| pb  Pre-bend
| br  Bend release
| pbr Pre-bend release
| brb Bend release bend

************************************





Comments


Popular Smashing Pumpkins tabs & chords
Blank Page 4 Bass Tabs
Crush 2 Bass Tabs
Jellybelly Newest Bass Tabs
Sad Peter Pan 3 Bass Tabs
Dreaming 1 Chords
Astral Planes 1 Tabs
Egg Tabs
Marquis In Spades 1 Tabs
Whir Tabs
Apathys Last Kiss Ukulele


Song lyrics



↑ Back to top | Tablatures and chords are parodies/interpretations of the original songs. You may use it for private study, scholarship, research or language learning purposes only
© 2014 AZChords.com Contact us | Privacy policy | DMCA | Add/correct tabs | Request tabs | Top 50 tabs