» » »

Smashing Pumpkins, The Celestials Bass tabs (ver.1)

Artists:  A B C D E F G H I J K L M N O P Q R S T U V W X Y Z # 

The Celestials Bass tabs (ver.1)

Smashing Pumpkins Tabs
Rating:
0/5 (0 votes)
The Celestials lessons Tabs too difficult? Try these video lessons and learn fast
                I'm not sure about the tabs for the entire song, but here is the bass solo/riff that 
kicks in around 1:17.

"I'm gonna love you 'til this ends..." Bass kicks in

Either variation 1
G--------------||-9-9-7-7----|
D-4-4-6-7---7-7||---------7--|
A--------------||------------|
E----------------------------|

or Variation 2
G--------------||9-9---7-7------|
D-----6-7---7-7||----------7----|
A-9-9----------||---------------|
E--------------||---------------|

Var 1 or 2 followed by:
G-----1-2---1-2---2-2-||9-9--7-9-11-|
D-4-4-----------------||------------|
A---------------------||------------|
E---------------------||------------|
            

comments powered by Disqus
↑ Back to top | Smashing Pumpkins Bass for The Celestials. Lyrics for acoustic guitar and electric guitar. Tablatures and chords are parodies/interpretations of the original songs. You may use it for private study, scholarship, research or language learning purposes only