>
 >
Thats The Way My Love Is 1

Thats The Way My Love Is 1 Guitar Tabs

Smashing Pumpkins - Thats The Way My Love Is 1 chords, tabs, tablatures, lyrics

Guitar lessons | Add/correct | Request | Top 50 tabs Artists:  A B C D E F G H I J K L M N O P Q R S T U V W X Y Z 0-9

Thats The Way My Love Is 1 Guitar Tabs – Smashing Pumpkins

CD, Sheet music, Poster

Do you like Thats The Way My Love Is 1? Share with your friends now
ChordsChords v2TabsTabs v2Tabs v3
Tuning: Db Gb B E Ab B



INTRO
|-0---------0---------|
|-8---------8---------|
|-0---------0---------|
|-10--------9---------|
|-10--------10--------|
|---------------------|


VERSE
|-0---------0---------0---------0-----0-----|
|-8---------8---------8---------8-----8-----|
|-0---------0---------0---------0-----0-----|
|-10--------9---------10--------9-----9-----|
|-10--------10--------10--------10----10----|
|-------------------------------------0-----|

|-0--------0----0-----0---------|
|-0--------0----0-----0---------|
|-x--------x----0-----0---------|
|-7--------9----9-----10--------|
|-7--------9----10----10--------|
|-5--------7----0-----8---------|

|-0---------0---------0---------0-----0-----|
|-8---------8---------8---------8-----8-----|
|-0---------0---------0---------0-----0-----|
|-10--------9---------10--------9-----9-----|
|-10--------10--------10--------10----10----|
|-------------------------------------0-----|

|-0--------0----0-----0---------0-----0-----0---------|
|-0--------0----0-----8---------8-----8-----8---------|
|-x--------x----0-----0---------0-----0-----0---------|
|-7--------9----9-----10--------9-----9-----10--------|
|-7--------9----10----10--------10----10----10--------|
|-5--------7----0---------------------0---------------|


--PRECHORUS
|-0---------0--------0---------0--------0---------0---------0-----0-----|
|-0---------0--------0---------0--------0---------8---------8-----8-----|
|-x---------x--------x---------x--------x---------0---------0-----0-----|
|-12--------7--------12--------7--------12--------10--------9-----9-----|
|-12--------7--------12--------7--------12--------10--------10----10----|
|-10--------5--------10--------5--------10------------------------0-----|


CHORUS
|-0-----0-----0---------0-----0-----0-----0----0-----0-----0---------|
|-8-----8-----8---------8-----8-----8-----8----0-----0-----0---------|
|-0-----0-----0---------0-----0-----0-----0----0-----x-----0---------|
|-10----9-----9---------10----9-----9-----9----10----12----9---------|
|-10----10----10--------10----10----10----0----10----12----10--------|
|-------------0---------------------0----------8-----10----0---------|

|-0-----0-----0---------0-----0-----0--------|
|-8-----8-----8---------8-----8-----8--------|
|-0-----0-----0---------0-----0-----0--------|
|-10----9-----9---------10----9-----9--------|
|-10----10----10--------10----10----10-------|
|-------------0---------------------0--------|


BRIDGE
|-0--------0--------0---------0-----0-----0---------0-----0-----0---------|
|-0--------0--------0---------8-----8-----8---------8-----8-----8---------|
|-x--------x--------0---------0-----0-----0---------0-----0-----0---------|
|-9--------7--------9---------10----9-----9---------10----9-----9---------|
|-9--------7--------10--------10----10----10--------10----10----10--------|
|-7--------5--------0---------------------0---------------------0---------|


PRE-SOLO
|---0-------0-------0-------0-------0-------0-------0-------0-----|
|-------0-------0-------0-------0-------0-------0-------0-------0-|
|-----------------------------------------------------------------|
|----(7)-(7)-(7)-(7)-(7)-(7)-(7)-----(9)-(9)-(9)-(9)-(9)-(9)-(9)--|
|-----------------------------------------------------------------|
|-5-------------------------------7-------------------------------|


--SOLO
|-0-----0-----0---------0-----0-----0-----0----0-----0-----0---------0-----0-----0---------|
|-8-----8-----8---------8-----8-----8-----8----0-----0-----0---------8-----8-----8---------|
|-0-----0-----0---------0-----0-----0-----0----0-----x-----0---------0-----0-----0---------|
|-10----9-----9---------10----9-----9-----9----10----12----9---------10----9-----9---------|
|-10----10----10--------10----10----10----0----10----12----10--------10----10----10--------|
|-------------0---------------------0----------8-----10----0---------------------0---------|

 Lead
|------------------------------------------------------------------------------------------------|
|-/15-15~~~~--12~~-13~~-12~~~~\----/15-15~~~~-/17~~-12~~~~~~\--/15-15~~~~-15~~-15~~-15b17-12\10--|
|----------------------------------------------------------------------------------------------12|
|------------------------------------------------------------------------------------------------|
|------------------------------------------------------------------------------------------------|
|------------------------------------------------------------------------------------------------|

 ----------------------------------------------------------|
 -/12-10-13~~--12--------------------------15b17r15~~~~~~--|
 -----------------12~~--16r14p12---------------------------|
 --------------------------------14~~~~~~------------------|
 ----------------------------------------------------------|
 ----------------------------------------------------------|


--INTERLUDE
|-0---------0----0-----0---------0----0-----0-----0-----0---------0-----0-----0---------|
|-8---------8----8-----8---------8----8-----0-----0-----0---------8-----8-----8---------|
|-0---------0----0-----0---------0----0-----0-----x-----0---------0-----0-----0---------|
|-9---------9----9-----9---------9----9-----10----12----9---------10----9-----9---------|
|-10--------0----10----10--------0----10----10----12----10--------10----10----10--------|
|----------------0--------------------0-----8-----10----0---------------------0---------|


--CHORUS
|-0-----0-----0---------0-----0-----0-----0----0-----0-----0---------0-----0-----0---------|
|-8-----8-----8---------8-----8-----8-----8----0-----0-----0---------8-----8-----8---------|
|-0-----0-----0---------0-----0-----0-----0----0-----x-----0---------0-----0-----0---------|
|-10----9-----9---------10----9-----9-----9----10----12----9---------10----9-----9---------|
|-10----10----10--------10----10----10----0----10----12----10--------10----10----10--------|
|-------------0---------------------0----------8-----10----0---------------------0---------|

|-0-----0-----0---------0-----0-----0-----0----0-----0-----0---------|
|-8-----8-----8---------8-----8-----8-----8----0-----0-----0---------|
|-0-----0-----0---------0-----0-----0-----0----0-----x-----0---------|
|-10----9-----9---------10----9-----9-----9----10----12----9---------|
|-10----10----10--------10----10----10----0----10----12----10--------|
|-------------0---------------------0----------8-----10----0---------|

|---0---------0--------0-------0-------0---------0------0---------|
|--------0---------0-------0-------0--------0---------0-0---------|
|-------------------------------------------------------0---------|
|----(10)------(12)---------------------(10)------(12)--9---------|
|-----------------------(7)-(7)-(7)---------------------10--------|
|-8--------10--------0---------------8--------10--------0---------|





Comments


Popular Smashing Pumpkins tabs & chords
Spaced Bass Tabs
East Chords
Medellia Of The Gray Skies Chords
La Dolly Vita Tabs
Mellon Collie And The Infinite Sadness 1 Tabs
Soma 1 Tabs
Starz 1 Tabs
Tear Tabs
Disarm Ukulele
Luna Ukulele


Song lyrics



↑ Back to top | Tablatures and chords are parodies/interpretations of the original songs. You may use it for private study, scholarship, research or language learning purposes only
© 2014 AZChords.com Contact us | Privacy policy | DMCA | Add/correct tabs | Request tabs | Top 50 tabs