» » »

Smashing Pumpkins, Tarantula Bass tabs (ver.1)

Artists:  A B C D E F G H I J K L M N O P Q R S T U V W X Y Z # 

Tarantula Bass tabs (ver.1)

Smashing Pumpkins Tabs
 Rating:
4/5 (4 votes)
Tarantula lessons Tabs too difficult? Try these video lessons and learn fast
1
                Song - Tarantula
Band - Smashing Pumpkins
Tuning ā€“ Half a Step Down

Intro
F#---------|----------------------------------------|
C#---------|----------------------------------------|
G#---------|----------------------------------------|
D#-0~------|-----12-12-12-12-12-12-12-12-12-12-12/2-|

Verse
F#---------------------------|
C#---------------------------|
G#---------------------------|
D#-00000000--333333--888888--|x7

Pre Chorus:
F#------------------------------------------------|
C#------------------------------------------------|
G#------------------------------------------------|
D#-777777777777-10101010101010101010-888888888888-|

F#----------------------------------|
C#----------------------------------|
G#----------------------------------|
D#-555555555555-777777-101010101010-|

Chorus:
F#--------------------------------------------------------|
C#--------------------------------------------------------|
G#--------------------------------------------------------|
D#--333333333333-222222222222-000000000000000000000000----|

F#------------------------------------------------|
C#------------------------------------------------|
G#------333333333333-222222222222-000000000000----|
D#------------------------------------------------|

F#------------------------------------------------|
C#------------------------------------------------|
G#--------------------------------000000000000----|
D#----333333333333--222222222222------------------|

F#------------------------------------------------------|
C#------------------------------------------------------|
G#---------------------------------------------3-3-3----|
D#-00000000--333333--888888--00000000--3-3-3------------|x3

F#-----------------------------------------------------------|
C#-----------------------------------------------------------|
G#----22/5-55/6-66/7-77--------------------------------------|
D#------------------------33333333-22/5-55/6-66/7-77---------|

Pause for into

Verse
F#---------------------------|
C#---------------------------|
G#---------------------------|
D#-00000000--333333--888888--|x10

Pre Chorus:
F#------------------------------------------------|
C#------------------------------------------------|
G#------------------------------------------------|
D#-777777777777-10101010101010101010-888888888888-|

F#----------------------------------|
C#----------------------------------|
G#----------------------------------|
D#-555555555555-777777-101010101010-|


Chorus:
F#--------------------------------------------------------|
C#--------------------------------------------------------|
G#--------------------------------------------------------|
D#--333333333333-222222222222-000000000000000000000000----|


F#------------------------------------------------|
C#------------------------------------------------|
G#------333333333333-222222222222-000000000000----|
D#------------------------------------------------|

F#------------------------------------------------|
C#------------------------------------------------|
G#--------------------------------000000000000----|
D#----333333333333--222222222222------------------|

Build up
F#-------------------------------------------------|
C#-------------------------------------------------|   x2
G#--------------------------000-000000--333-555----|
D#--000-000000--333-333333-------------------------|
PM      ......      ......      ......

F#-------------------------------------------------------------------|
C#-------------------------------------------------------------------|
G#--------------------------000-000000--3---5------------------------|
D#--000-000000--333-333333----------------------3--------------------|

Slow bit
F#-----------|-----------------------------------|-------|
C------------|-----------------------------------|-------|
G#---------x2|-----------------------------------|-------|
D#-8~-7~-0~--|-8~-7~-10~-0~--8~-10~-0~-8~-10~-0~-|-5~-7~-|

Verse
F#---------------------------|
C#---------------------------|
G#---------------------------|
D#-00000000--333333--888888--|x7

F#-----------------------------------------------------------|
C#-----------------------------------------------------------|
G#----22/5-55/6-66/7-77--------------------------------------|
D#------------------------33333333-22/5-55/6-66/7-77---------|

Intro Harmonic thingy

End on:
F#----------------|
C#----------------|
G#----------------|
D#-------0ā€”0------|

Iā€™m pretty sure that these are all the correct notes, but if you find any problems with 
            
Submit corrections

comments powered by Disqus
↑ Back to top | Smashing Pumpkins Bass for Tarantula. Lyrics for acoustic guitar and electric guitar. 1 Tablatures and chords are parodies/interpretations of the original songs. You may use it for private study, scholarship, research or language learning purposes only