» » »

Tales Of A Scorched Earth Bass tabs (ver.1)

Artists:  A B C D E F G H I J K L M N O P Q R S T U V W X Y Z # 

Tales Of A Scorched Earth Bass tabs (ver.1)

Smashing Pumpkins
Rating:
0/5 (0 votes)

Hard to play? Try these video lessons and learn fast.
                Tuning: Half Step Down

Intro
G:----------------------------------------
D:---------------------------------------- X8
A:---6h8-8--6h8-8--6h8-8--6h8-8--6h8-6h8--
E:----------------------------------------

G:--------------------------
D:--------------------------
A:-----------------------5--
E:---0-00-3h5--0-0-0-6h7----

G:-----------------------------------------------------------------------------------------------
D:-----------------------------------------------------------------------------------------------
A:-----------------------5-----------------------5---------------------5--------------5----------
E:---0-00-3h5--0-0-0-6h7-----0-00-3h5--0-0-0-6h7---0-00-3h5--0-0-0-6h7---0-00-3h5--00---0-3---5--

Verse
G:--------------------------
D:--------------------------
A:-----------------------5-- X4
E:---0-00-3h5--0-0-0-6h7----

G:-------------------------------------------------------
D:---------------------------------------------------6-6-
A:---6h8--6h8--6h8--6h8--6h8-6h8--6h8--6h8--6h8--6h8-----
E:-------------------------------------------------------

G:--------------------------
D:--------------------------
A:-----------------------5-- X4
E:---0-00-3h5--0-0-0-6h7----

Chorus
G:--------------------------------------------------------------------
D:--------------------------------------------------------------------
A:-------------------------------------------------------------------- 
E:---0--0--0-0-0-00--3--3--3-3-3-33--8--8--8-8-8-88--5--5--5-5-5-55---

G:----------------------------------------------------------------------
D:----------------------------------------------------------------------
A:-----------------------------------------7-------8-------10-------11--
E:---0000-6--0000-7--0000-9--0000-10--0000----0000----0000-----0000-----

Chorus (cont.)
G:-----------------------------------------------------------------------
D:--------7-------9-------10-------11-------12------13------14-------15--
A:-----------------------------------------------------------------------
E:---0000----0000----0000-----0000-----0000----0000----0000-----0000-----

Chorus (cont.)
G:----------------------------------------
D:--------13-------13-------17-------13---
A:----------------------------------------
E:---0000-----0000-----0000-----0000------

Link
G:--------------------------------   G:---------
D:--------------------------------X4 D:(6)-(6)-- 
A:---6h8--6h8--6h8--6h8--6h8-6h8--   A:---------
E:--------------------------------   E:---------

Verse 2
G:--------------------------
D:-------------------------- x8
A:-----------------------5-- 
E:---0-00-3h5--0-0-0-6h7----

Chorus 2
G:--------------------------------------------------------------------
D:--------------------------------------------------------------------
A:-------------------------------------------------------------------- 
E:---0--0--0-0-0-00--3--3--3-3-3-33--8--8--8-8-8-88--5--5--5-5-5-55---

G:----------------------------------------------------------------------
D:----------------------------------------------------------------------
A:-----------------------------------------7-------8-------10-------11--
E:---0000-6--0000-7--0000-9--0000-10--0000----0000----0000-----0000-----

Chorus (cont.)
G:-----------------------------------------------------------------------
D:--------7-------9-------10-------11-------12------13------14-------15--
A:-----------------------------------------------------------------------
E:---0000----0000----0000-----0000-----0000----0000----0000-----0000-----

G:------------------------------------------------------------------------------------------------------------
D:-----------------------------------------5-55-6-66-8-88-10-(10)(10)-11-(11)(11)-12-(12)(12)----------------- X2
A:-------------------------------6-66-8-88--------------------------------------------------------------------
E:---5-55-7-77-9-99-11-(11)(11)-------------------------------------------------------------------------------

G:----------------------------------------
D:---------------------------------------- X8
A:---6h8-8--6h8-8--6h8-8--6h8-8--6h8-6h8--
E:----------------------------------------

G:--------------------------
D:-------------------------- X12
A:-----------------------5--
E:---0-00-3h5--0-0-0-6h7----

Chorus
G:--------------------------------------------------------------------
D:--------------------------------------------------------------------
A:-------------------------------------------------------------------- 
E:---0--0--0-0-0-00--3--3--3-3-3-33--8--8--8-8-8-88--5--5--5-5-5-55---

G:----------------------------------------------------------------------
D:----------------------------------------------------------------------
A:-----------------------------------------7-------8-------10-------11--
E:---0000-6--0000-7--0000-9--0000-10--0000----0000----0000-----0000-----

Chorus (cont.)
G:-----------------------------------------------------------------------
D:--------7-------9-------10-------11-------12------13------14-------15--
A:-----------------------------------------------------------------------
E:---0000----0000----0000-----0000-----0000----0000----0000-----0000-----

Chorus (cont.)
G:---------------------
D:--------13-------13--
A:---------------------
E:---0000-----0000-----

Ending
G:--------------------------
D:-------------------------- X4
A:-----------------------5--
E:---0-00-3h5--0-0-0-6h7----

Ends 0n
G:------
D:------
A:------
E:---0--
            
Hard to play? Try these video lessons and learn fast. | Correct




comments powered by Disqus
↑ Back to top | Tablatures and chords are parodies/interpretations of the original songs. You may use it for private study, scholarship, research or language learning purposes only