» » »

Smashing Pumpkins, Sweet Sweet Chords (ver.1)

Artists:  A B C D E F G H I J K L M N O P Q R S T U V W X Y Z # 

Sweet Sweet Chords (ver.1)

Smashing Pumpkins Tabs
 Rating:
4/5 (4 votes)
Sweet Sweet lessons Tabs too difficult? Try these video lessons and learn fast
                SWEET SWEET:  This sad little ditty is simply a progression of 3 basic chords,
               G C and Em.  The song sounds OK like this, but G tuning makes it
               sound close to the Siamese Dream version.
                                                        --> E G D G B E <---
Intro:
-=-=- |--------------------------------------------0---0--|r      play this
guitar|--12--12--12---12-10--8----8--8---8---------0---0--|e   string with your
  1   |---0---0---0---------------9--9---9----0----0---0--|p   thumb - its much
      |---0---0---0--------------10-10--10----2----2---2--|e   easier that
      |---0---0---0------------------0---0----4----4---4--|a          way
      |--10--------------------------8---8----0----0---0--|t    <------------

- or something like that anyway.  After 2 bars, guitar 2 comes in with the
     following:

      |-----------------------------------------------0------|
      |-------------------------------------------------0----|
      |---0---0---0---0---------9---9---9----------0------0--|
      |-----------------12-9-10--10--10----------2-----------|
      |----------------------------------------4-------------|
      |--------------------------------------0---------------|

 - guitar 2 continues arpeggiating this pattern throughout the whole song.


 Verse:  After the Intro, guitar 1 starts to strum the chords outlined above
 -=-=-      for the rest of the song.  After the 1st "and they all want you to
            change..", a 3rd guitar plays this in 3/4 time:


        |-------10------10---------10--
        |----12------12------12-12-----
        |--0-------0-------0-----------   or something close to it anyway.
        |------------------------------
        |------------------------------
        |------------------------------

                                                  (Van Vekris)
            
Submit corrections

comments powered by Disqus
↑ Back to top | Smashing Pumpkins Chords for Sweet Sweet. Lyrics for acoustic guitar and electric guitar. Tablatures and chords are parodies/interpretations of the original songs. You may use it for private study, scholarship, research or language learning purposes only