» » »

Smashing Pumpkins, Superchrist Tabs (ver.1)

Artists:  A B C D E F G H I J K L M N O P Q R S T U V W X Y Z # 

Superchrist Tabs (ver.1)

Smashing Pumpkins Tabs
 Rating:
4/5 (4 votes)
Superchrist lessons Tabs too difficult? Try these video lessons and learn fast
                ***********************************************************************
-----------------------------------------------------------------------

--title: Superchrist
--tuning: Db Gb B E Ab Db


|--------|(x4)
|--------|
|--------|
|--------|
|--------|
|10h12-0-|

|-----------------------------------------|(x4)
|-----------------------------------------|
|-----------------------------------------|
|-----------------------------------------|
|-----------------------------------------|
|10h12-0----10h12-0----10h12-0----10h12-0-|

|---------------------------------------------------------------|(x4)
|---------------------------------------------------------------|
|--------14b15r14---------14b15r14---------14b15r14---15~---16~-|
|--------x----------------x----------------x----------x-----x---|
|--------12b13r12---------12b13r12---------12b13r12---13~---14~-|
|10h12-0----------10h12-0----------10h12-0----------0-----0-----|

|--------|
|--------|
|--------|
|--------|
|--------|
|10h12-0-|

|-----------------------------------------|(x4)
|-----------------------------------------|
|-----------------------------------------|
|-----------------------------------------|
|-----------------------------------------|
|10h12-0----10h12-0----10h12-0----10h12-0-|

|---------------------------------------------------------------|(x4)
|---------------------------------------------------------------|
|--------14b15r14---------14b15r14---------14b15r14---15~---16~-|
|--------x----------------x----------------x----------x-----x---|
|--------12b13r12---------12b13r12---------12b13r12---13~---14~-|
|10h12-0----------10h12-0----------10h12-0----------0-----0-----|

|--------|
|--------|
|--------|
|--------|
|--------|
|10h12-0-|

|------------------------------------------------------------------------|(x8)
|------------------------------------------------------------------------|
|------------------------------------------------------------------------|
|------------------------------------------------------------------------|
|------------------------------------------------------------------------|
|10-10-10-12-12-10-10-10-10-12-12-10-10-10-10-12-12-10-10-10-10-12-12-10-|
pm........................................................................


|--------------------------------------------|
|--------------------------------------------|
|--------------------------------------------|
|--------------------------------------------|
|--------------------------------------------|
|12/-----------------------------------10h12-|
|12/-0-0-10h12-0-0-10h12-0-0-10h12-0-0-------|

|----------------------------------------|(x6)
|----------------------------------------|
|----------------------------------------|
|----------------------------------------|
|----------------------------------------|
|----------------------------------10h12-|
|0-0-10h12-0-0-10h12-0-0-10h12-0-0-------|

|-------------------------------------------|
|-------------------------------------------|
|-------------------------------------------|
|-------------------------------------------|
|-------------------------------------------|
|----------------------------------10h12----|
|0-0-10h12-0-0-10h12-0-0-10h12-0-0-------12/|

Interlude (w/chorus and slight delay)
*
|--------------------------------------------------------------|
|--------------------------------------------------------------|
|--------------------------------------------------------------|
|----7-7-5-5---------------7-7-5-5-----------------------------|
|7-7---------9-9-7-----7-7---------9-9-7-----5-----7-----5-----|
|--------------------------------------------------------------|

--------------------------------|
--------------------------------|
--------------------------------|
--------------------------------|
5/7-5/7-5/7-5/7-5/7-5/7-5/7-5/7-|
--------------------------------|
*

|--------------------------------------------------------------------------------|x4
|--------------------------------------------------------------------------------|
|14/13-----14/13-----14/13-----14/13-----16/14-----16/14-----16/14-----16/14-----|
|x---------x---------x---------x---------x---------x---------x---------x---------|
|12/11-----12/11-----12/11-----12/11-----14/12-----14/12-----14/12-----14/12-----|
|------0-0-------0-0-------0-0-------0-0-------0-0-------0-0-------0-0-------0-0-|

|----------------------------------------|(x20)
|----------------------------------------|
|----------------------------------------|
|----------------------------------------|
|----------------------------------------|
|----------------------------------10h12-|
|0-0-10h12-0-0-10h12-0-0-10h12-0-0-------|

(w/distortion, chorus, and slight delay)
|------------------------------------------------------------------------|(x4)
|5~-5~-5~-5~-5~-5~-5~-5~-5~-5~-5~-5~-5~-5~-5~-5~-5~-5~-5~-5~-5~-5~-5~-5~-|
|------------------------------------------------------------------------|
|------------------------------------------------------------------------|
|------------------------------------------------------------------------|
|------------------------------------------------------------------------|

|----------------------------------------|
|----------------------------------------|
|----------------------------------------|
|----------------------------------------|
|----------------------------------------|
|----------------------------------10h12-|
|0-0-10h12-0-0-10h12-0-0-10h12-0-0-------|

|-------------------------------------------|
|-------------------------------------------|
|-------------------------------------------|
|-------------------------------------------|
|-------------------------------------------|
|----------------------------------10h12----|
|0-0-10h12-0-0-10h12-0-0-10h12-0-0-------12/|


LYRICS

Revolution, disillusion, rise
One solution, one that takes you beyond
This love, am I
For I, need time


-----------------------------------------------------------------------
***********************************************************************
            
Submit corrections

comments powered by Disqus
↑ Back to top | Smashing Pumpkins Tabs for Superchrist. Lyrics for acoustic guitar and electric guitar. Tablatures and chords are parodies/interpretations of the original songs. You may use it for private study, scholarship, research or language learning purposes only