>
 >
Sunkissed

Sunkissed Guitar Tabs

Smashing Pumpkins - Sunkissed chords, tabs, tablatures, lyrics

Guitar lessons | Add/correct | Request | Top 50 tabs Artists:  A B C D E F G H I J K L M N O P Q R S T U V W X Y Z 0-9

Sunkissed Guitar Tabs – Smashing Pumpkins

CD, Sheet music, Poster

Do you like Sunkissed? Share with your friends now
Tabs
***I'd say this is probably 100% accurate, let me know what you think!***

Grab your acoustic and tune your E to drop D,

Then put a capo on the 6th fret.

Let the open strings be hit on the EBG strings often. I won't be tabbing them however.

A lot of hammer-ons in this piece. It's what makes it so cool.

This a great piece to strengthen your fingers for doing fast hammer-ons!

  Drop D - Capo 6th Fret (all notes relative to capo position)
|-----------------------------------------------------------------|
|-----------------------------------------------------------------|
|-----------------------------------------------------------------|
|-2h4-2h4-2h4-2h4-2h4-2h4-2-------0h2-0h2-0h2-0h2-0h2-0h2-0---0-0-|
|-0---0---0---0---0---0---0---0-0-3---3---3---3---3---3---3---0-0-|
|-0---0---0---0---0---0---0---0-0-2---2---2---2---2---2---2-------|
  Verse
|-----------------------------------------------------------------|
|-----------------------------------------------------------------|
|-----------------------------------------------------------------|
|-0---0---0---0---0---0---0---0-0-2h4-2h4-2h4-2h4-2h4-2h4-2---0-0-|
|-0h2-0h2-0h2-0h2-0h2-0h2-0---0-0-0---0---0---0---0---0---0---0-0-|
|-5---5---5---5---5---5---5---0-0-0---0---0---0---0---0---0-------|

|-----------------------------------------------------------------|
|-----------------------------------------------------------------|
|-----------------------------------------------------------------|
|-0h2-0h2-0h2-0h2-0h2-0h2-0---0-0-0---0---0---0---0---0---0---0-0-|
|-3---3---3---3---3---3---3---0-0-0h2-0h2-0h2-0h2-0h2-0h2-0---0-0-|
|-2---2---2---2---2---2---2-------5---5---5---5---5---5---5---0-0-|

|-----------------------------------------------------------------|
|-----------------------------------------------------------------|
|-2h4-2h4-2h4-2h4-2h4-2h4-2---------------------------------------|
|-0---0---0---0---0---0---0---0-0-0h2-0h2-0h2-0h2-0h2-0h2-0---0-0-|
|-0---0---0---0---0---0---0---0-0-3---3---3---3---3---3---3---3-3-|
|-0---0---0---0---0---0---0---0-0-2---2---2---2---2---2---2-------|
  Prechorus
|-----------------------------------------------------------------|
|-----------------------------------------------------------------|
|-----------------------------------------------------------------|
|-0h2-0h2-0h2-0h2-0h2-0-0-0---4---0h2-0h2-0---0-0-2h4-2h4-2-------|
|-3---3---3---3---3---3-3-3---3---3---3---3---3-3-5---5---5---0-0-|
|-------------------------------------------------------------0-0-|
               (often repeats ^here back to prechorus)
|---------0---------------0---------------------------------------|
|---------0---------------0---------------------------------------|
|---------0---------------0-------------------0-0-----------------|
|-4h5-4h5-5-------4h5-4h5-5-------0h2-0h2-0---0-0-2h4-2h4-2-------|
|-0---0---0---0-0-0---0---0---0-0-3---3---3-------5---5---5---0-0-|
|-0---0---0---0-0-0---0---0---0-0-----------------------------0-0-|
  Chorus                          ^^^^     go to bridge/verse (4/5)^
|---------0---------------0---------|| ^
|---------0---------------0---------|| ^Play 2nd half again and go to fill (2)
|---------0---------------0---------|| Repeat from beginning (1)
|-4h5-4h5-5-------4h5-4h5-5---------|| Repeat Chorus, then go to Verse (3)
|-0---0---0---0-0-0---0---0---0-0---||
|-0---0---0---0-0-0---0---0---0-0---||

There is also a triplet sounding part which goes like this:
|-----------------------------------------------------------------||
|-----------------------------------------------------------------||
|---------------------------------------------0-0-----------------||
|-4-----5-----4-----2-----0---2---0h2-0h2-0---0-0-2h4-2h4-2-------||
|-0---0-0-0-0-0---0-0-0-0-0---0---3---3---3-------5---5---5---0-0-||
|-0---0-0-0-0-0---0-0-0-0-0---0-------------------------------0-0-||
                             Bridge
 ^^^^^^^^^^^^^^Fill^^^^^^^^^^^^^^


The ending is also a triplet sounding part goes like this:
|-----------------------------------------------------------------||
|-----------------------------------------------------------------||
|-----------------------------------------------------------------||
|-4-----2-----0-------------------------------0-------------------||
|-0---0-0-0-0-0-----2-----0---2---2-----0-----0-------------------||
|-0---0-0-0-0-0---0-0-0-0-0---0---0---0-0-0-0-0-------------------||
  Ending

To break it down further:

------Verse

------Prechorus (no repeat)

------Chorus (1)

------Verse
To make thee mine
I cast a net as wide as I am free
Line by line
Erase the schemes that I have drawn to be

------Prechorus
There's no fear anymore
Crystalline the truth, assumes the breeze
There's no fear anymore
Burn the bridge outside

------Chorus (2)
If I'm gonna live
If I'm gonna live
Without you
If I'm gonna live
If I'm gonna live
Without you

------Fill
If I can't live without you

------Verse
I feel alone walking home All by myself
I've never chased a brighter sun than you'll become

------Prechorus (no repeat)

------Bridge (play x2.5)
I mistook you for a trust
Invocations I must dust off
Fresh bouquets to playfully collect

------Verse

------Verse
Even though you've seen the show
I've saved the best for last
A cannonball shot stern to bow
To warn the crowd

------Prechorus
I fall in love from my guts
My arms are twined to switch
And in repose, a silent rose
Burns the bridge outside

------Chorus (3)
If I'm gonna live
If I'm gonna live
Without you
If I'm gonna live
If I'm gonna live
Without you
If I'm gonna live
If I'm gonna live
Without you

------Verse
To make thee mine
I call upon the wisdom of my age
Blow by blow
Chase the bees of the death song's wings

------Prechorus (no repeat)
There's no crying anymore
Crystalline, the bridges burn outside

------Bridge
Stitches will all come undone

------Chorus (4)
If I'm gonna live
If I'm gonna live
Without you

------Bridge
What comes must all come out at once of us

------Chorus (5)
If I'm gonna live
If I'm gonna live
Without you

------Verse
I've never chased a brighter sun than you'll become
What comes will all, the breaking dawn
But I'm on its side

------Prechorus

------Ending

Enjoy! I spent a good hour or two tabbing this out for you Pumpkin fans. :)





Comments


Popular Smashing Pumpkins tabs & chords
Geek Usa Bass Tabs
God Bass Tabs
Siva 2 Bass Tabs
Dreaming 1 Chords
Take Me Down Chords
The Beginning Is The End Is The Beginning Chords
Blank 1 Tabs
Mayonaise 2 Tabs
Tonight (Reprise) 1 Tabs
Ugly Tabs


Song lyrics



↑ Back to top | Tablatures and chords are parodies/interpretations of the original songs. You may use it for private study, scholarship, research or language learning purposes only
© 2014 AZChords.com Contact us | Privacy policy | DMCA | Add/correct tabs | Request tabs | Top 50 tabs