>
 >
Speed Kills 2

Speed Kills 2 Guitar Tabs

Smashing Pumpkins - Speed Kills 2 chords, tabs, tablatures, lyrics

Guitar lessons | Add/correct | Request | Top 50 tabs Artists:  A B C D E F G H I J K L M N O P Q R S T U V W X Y Z 0-9

Speed Kills 2 Guitar Tabs – Smashing Pumpkins

CD, Sheet music, Poster

Do you like Speed Kills 2? Share with your friends now
Bass TabsTabsTabs v2
================================================================================
                       S M A S H I N G   P U M P K I N S

                                       -

                             S P E E D   K I L L S

             ( S O L O   A C O U S T I C   A R R A N G E M E N T )
================================================================================


                       STAND INSIDE YOUR LOVE (UK SINGLE)
                            (c) Virgin Records (2000)


                            [ Tuning Outlined Below ]

                                  Tempo = 67 BPM
                               Time Signature = 4/4



                          -----------------------------

                                 PADDY MCMULLAN

                                   Version 1.0
                                28th March 2012
                             -----------------------

                             Tablature Symbols Used:



 \         -  Slide Down to/Down From
 /         -  Slide Up to/Up From
 ( )       -  Ghost Note/Tied Note/Implied Note
 V ^       -  Up-stroke/Down-stroke (Indicates Strum Direction)



==============
Guitar Tuning:
==============


Tune down a half step then tune the G string down a further half step, then tune
the B string down a further whole step.


E   A   D   G   B   E
|   |   |   |   |   |
Eb  Ab  Db  F   Ab  Eb



                            -----------------------
                                  Chords Used:
                            -----------------------


                 F#5        Em      Bm7add11     Dadd9     Eadd11

           E||----0----||----0----||----0----||----0----||----0----||
           B||----0----||----0----||----0----||----0----||----0----||
           G||----0----||----0----||----0----||----0----||----2----||
           D||----4----||----2----||----0----||----0----||----2----||
           A||----4----||----2----||----2----||----5----||----2----||
           E||----2----||----0----||---------||---------||----0----||
                  4          3          1          1          4
                  3          2                                3
                  1                                           2


                      C#7M       B7sus4      A5      Eadd11 (2)

                 ||----0----||----0----||----0----||----0----||
                 ||----0----||----0----||----0----||----0----||
                 ||----7----||----0----||----3----||----5----||
                 ||----6----||----4----||----2----||----6----||
                 ||----4----||----2----||----0----||----7----||
                 ||---------||---------||---------||----0----||
                       4          3          3          1
                       3          1          2          2
                       1                                3



                             -----------------------
                                  Song Notes:
                             -----------------------


  This acoustic arrangement of the song is based on the version released as a
                  B-side to Stand Inside Your Love in the UK.




================================================================================
Intro:                                                         [ 00:00 - 00:36 ]
================================================================================


||-------0-----------------------| |
||-----0----0--------------------| |
||--0----------------0-----------|*|
||--4------- / 6)-- /7--- \------| | x 7
||--2------- / 4)-- /5--- \-0----|*|
||-------------------------------| |


|-------------------||
|-------------------||
|--0----------------||
|--4----------------||
|--2----------------||
|-------------------||



================================================================================
Verse 1:                                                       [ 00:36 - 01:21 ]
================================================================================


   [ F#5 ]         [ Em ]           [ Bm7add11 ]
                                  |___________________________[1,2,4]
||--------0-------------0---0---0-|-------0--0------0---0--0-0-0---||
||--------0--0-0---0----0-0-0---0-|--0----0--0---0--0---0--0-0-0-0-||
||--0-----0--0-0-0-0----0-0-0-0-0-|--0----0--0---0--0---0--0-0-0-0-|| x 4
||--4---4-4--4-4-4-2--2---2---2-0-|--0----0--0---0--0---0--0-0-0-0-||
||--4---4-4--4-4-4-2--2---2---2---|--2----2 /4---4 /5---5 /7-7-7-0-||
||--2---2----2-2-0-0--0---0---0---|------------------------0-0-0-0-||
    ^   ^ v  v ^ v ^  ^ v ^ v ^ v    ^    v  ^   ^  v   v  ^ v ^ v


   [ Dadd9 ]
|_________________________________[3]
|-------0--0------0---0--0--0--0----|
|--0----0--0---0--0---0--0--0--0--0-|
|--0----0--0---0--0---0--0--0--0--0-|
|--0----0--0---0--0---0--0--0--0--0-|
|--5----5 /7---7 /9---9 /12-12-12-0-|
|------------------------0--0--0--0-|
   ^    v  ^   ^  v   v  ^  v  ^  v



Speed kills but beauty lives forever,
Speed kills but beauty knows your name.
I fell ill inside eternal winter, winter.
And stood still beside eternal flame.



================================================================================
Chorus 1:                                                 [ Time 01:21 - 01:48 ]
================================================================================


    [ Bm7add11 ]                 [ F#5 ]

||-------0--0-----0--0-0-0--0-0-|--------0----------------0------|
||--0--0-0--0--0--0--0-0-0--0-0-|--------0---0--0--0----0-0--0---|
||--0--0-0--0--0--0--0-0-0--0-0-|--0-----0-0-0--0--0----0-0--0-0-|
||--0--0-0--0--0--0--0-0-4--4-4-|--4---4-4-4-4-/6--7--7-7-7--7-7-|
||--2--2-2--2 /4--5--5-5-5--5-5-|--4---4-4-4-4--0--0--0-0-4--4-0-|
||------------------------------|--2---2---2-2-/4--5--5-5--------|
    ^  ^ v  v  ^  ^  ^ v ^  ^ v    ^   ^ v ^ v  ^  ^  ^ v ^  ^ v


   [ Bm7add11 ]                 [ F#5 ]         [ Eadd11 ]

|-------0--0-----0--0-0-0--0-0-|--------0----------------0---0---0-||
|--0--0-0--0--0--0--0-0-0--0-0-|--------0---0-0---0------0-0-0---0-||
|--0--0-0--0--0--0--0-0-0--0-0-|--0-----0-0-0-0-0-0----0-0-0-0-0-0-||
|--0--0-0--0--0--0--0-0-4--4-4-|--4---4-4-4-4-4-4-2----2---2---2-2-||
|--2--2-2--2 /4--5--5-5-5--5-5-|--4---4-4-4-4-4-4-2----2---2---2-2-||
|------------------------------|--2---2---2-4-4-0-0----0---0---0-0-||
   ^  ^ v  v  ^  ^  ^ v ^  ^ v    ^   ^ v ^ v ^ v ^   ^ v ^ v ^ v


                     [ Dadd9 ]       [ C#7M ]

|--(0)--0--0-0-0-0-0-0-----0--0---|--0----0-0-0-0--0--0--0-0-0---|
|--(0)--0--0-0-0-0-0-0-----0--0-0-|--0----0-0-0-0--0--0--0-0-0---|
|--(2)--2--0-2-2-2-0-0-----0--0-0-|--7----7-7-7-7--7--7--7-7-7-0-|
|--(2)--2--2-2-2-2-0-0-----0--0-0-|--6----6-6-6-6--6--6--6-6-6-0-|
|--(2)--2--2-2-2-2---5-----5--5-0-|--4----4-4-4-4--4--4--4-4-4-2-|
|--(0)--0--0-0-0-0----------------|------------------------------|
        v  v ^ v ^ v ^     ^  ^ v    ^    ^ v ^ v  v  v  ^ v ^ v


   [ B7sus4 ]

|------------0----------||
|----------0-0----------||
|--0----0--0-0----------||
|--4----4--4-4----------||
|--2----2--2------------||
|-----------------------||
   ^    v  ^ v



And when I ride with you tonight,
We can move, at the speed of light.
And all I'd ask and all I'd pray.
The last rose of summer would stay.



================================================================================
Verse 2:                                                  [ Time 01:48 - 02:22 ]
================================================================================


   [ F#5 ]         [ Em ]            [ Bm7add11 ]
                                  |______________________________[1,2]
||--------0-------------0---0---0-|-------0--0------0---0--0-0-0---| |
||--------0--0-0---0----0-0-0---0-|--0----0--0---0--0---0--0-0-0-0-| |
||--0-----0--0-0-0-0----0-0-0-0-0-|--0----0--0---0--0---0--0-0-0-0-|*|
||--4---4-4--4-4-4-2--2---2---2-0-|--0----0--0---0--0---0--0-0-0-0-| | x 3
||--4---4-4--4-4-4-2--2---2---2---|--2----2 /4---4 /5---5 /7-7-7-0-|*|
||--2---2----2-2-0-0--0---0---0---|------------------------0-0-0-0-| |
    ^   ^ v  v ^ v ^  ^ v ^ v ^ v    ^    v  ^   ^  v   v  ^ v ^ v


   [ Dadd9 ]       [ C#7M ]
|____________________________[3]
|------0-0-0-0-----0----0------|
|--0---0-0-0-0-0-0-0----0--0-0-|
|--0---0-0-0-0-0-0-7----7--7-7-|
|--0---0-0-0-0-0-0-6----6--6-6-|
|--5---5-5-5-5-5-4-4----4--4-4-|
|------------------------------|
   ^   ^ v ^ v ^ v ^    ^  v ^


                           [ B7sus4 ]

| |------0----0-0-0---| |--0--0-0--0-0--0-0--0-0-0---|
| |--(0)-0-0--0-0-0-0-| |--0--0-0--0-0--0-0--0-0-0---|
|2|--(7)-7-7--7-7-7-0-|4|--0--0-0--0-0--0-0--0-0-0-0-|
|/|--(6)-6-6--6-6-6-0-|/|--4--4-4--4-4--4-4--4-4-4-0-|
|4|--(4)-4-4--4-4-4-0-|4|--2--2-2--2-2--2-2--2-2-2-0-|
| |-------------------| |--------------------------0-|
         v ^  ^ v ^ v      ^  v ^  v ^  v ^  ^ v ^ v


  [ F#5 ]         [ Em ]            [ Bm7add11 ]

|--------0-------------0---0---0-|-------0--0------0---0--0-0-0---||
|--------0--0-0---0----0-0-0---0-|--0----0--0---0--0---0--0-0-0-0-||
|--0-----0--0-0-0-0----0-0-0-0-0-|--0----0--0---0--0---0--0-0-0-0-||
|--4---4-4--4-4-4-2--2---2---2-0-|--0----0--0---0--0---0--0-0-0-0-||
|--4---4-4--4-4-4-2--2---2---2---|--2----2 /4---4 /5---5 /7-7-7-0-||
|--2---2----2-2-0-0--0---0---0---|------------------------0-0-0-0-||
   ^   ^ v  v ^ v ^  ^ v ^ v ^ v    ^    v  ^   ^  v   v  ^ v ^ v



The first time that I ever saw you,
Crashing hard through days of pain,
You were one of God's children,
Left to cry out in the rain,
Waiting to be saved at last.



================================================================================
Chorus 2:                                                 [ Time 02:22 - 02:49 ]
================================================================================


    [ Bm7add11 ]                 [ F#5 ]

||-------0--0-----0--0-0-0--0-0-|--------0----------------0------|
||--0--0-0--0--0--0--0-0-0--0-0-|--------0---0--0--0----0-0--0---|
||--0--0-0--0--0--0--0-0-0--0-0-|--0-----0-0-0--0--0----0-0--0-0-|
||--0--0-0--0--0--0--0-0-4--4-4-|--4---4-4-4-4-/6--7--7-7-7--7-7-|
||--2--2-2--2-/4--5--5-5-5--5-5-|--4---4-4-4-4--0--0--0-0-4--4-0-|
||------------------------------|--2---2---2-2-/4--5--5-5--------|
    ^  ^ v  v  ^  ^  ^ v ^  ^ v    ^   ^ v ^ v  ^  ^  ^ v ^  ^ v


   [ Bm7add11 ]                 [ F#5 ]         [ Eadd11 ]

|-------0--0-----0--0-0-0--0-0-|--------0----------------0---0---0-||
|--0--0-0--0--0--0--0-0-0--0-0-|--------0---0-0---0------0-0-0---0-||
|--0--0-0--0--0--0--0-0-0--0-0-|--0-----0-0-0-0-0-0----0-0-0-0-0-0-||
|--0--0-0--0--0--0--0-0-4--4-4-|--4---4-4-4-4-4-4-2----2---2---2-2-||
|--2--2-2--2-/4--5--5-5-5--5-5-|--4---4-4-4-4-4-4-2----2---2---2-2-||
|------------------------------|--2---2---2-4-4-0-0----0---0---0-0-||
   ^  ^ v  v  ^  ^  ^ v ^  ^ v    ^   ^ v ^ v ^ v ^   ^ v ^ v ^ v


                     [ Dadd9 ]       [ C#7M ]

|--(0)--0--0-0-0-0-0-0-----0--0---|--0----0-0-0-0--0--0--0-0-0---|
|--(0)--0--0-0-0-0-0-0-----0--0-0-|--0----0-0-0-0--0--0--0-0-0---|
|--(2)--2--0-2-2-2-0-0-----0--0-0-|--7----7-7-7-7--7--7--7-7-7-0-|
|--(2)--2--2-2-2-2-0-0-----0--0-0-|--6----6-6-6-6--6--6--6-6-6-0-|
|--(2)--2--2-2-2-2---5-----5--5-0-|--4----4-4-4-4--4--4--4-4-4-2-|
|--(0)--0--0-0-0-0----------------|------------------------------|
        v  v ^ v ^ v ^     ^  ^ v    ^    ^ v ^ v  v  v  ^ v ^ v


   [ Dadd9 ]

|------0-0----0--0--0-0--0-0-||
|--0---0-0--0-0--0--0-0--0-0-||
|--0---0-0--0-0--0--0-0--0-0-||
|--0---0-0--0-0--0--0-0--0-0-||
|--5---5-5--5-5--5--5-5--5-0-||
|----------------------------||
   ^   v ^  ^ v  v  v ^  ^ v



And when I ride with you tonight,
We can move, at the speed of light.
And all I'd ask and all I'd pray.
The last rose of summer,
The last rose of summer,



================================================================================
Guitar Solo Backing:                                      [ Time 02:49 - 03:29 ]
================================================================================


    [ A5 ]        [ Eadd11 (2) ]  [ Dadd9 ]

||--0--0-0--0-0-0-0--0-0-0--0---|------0--0------0---0---0----0--|
||--0--0-0--0-0-0-0--0-0-0--0---|--0---0--0---0--0---0---0----0--|
||--3--3-3--3-3-0-5--5-5-5--5---|--0---0--0---0--0---0---0----0--|
||--2--2-2--2-2-2-6--6-6-6--6-0-|--0---0--0---0--0---0---0----0--|
||--0--0-0--0-0---7--7-7-7--7-0-|--5---5 /7---7 /9---9  /12---12-|
||----------------0--0-0-0--0-0-|--------------------------------|
    ^  ^ v  v ^ v ^  ^ v ^  ^ v    ^   v  ^   v  ^   v   ^    v


   [ Bm7add11 ]                  [ Dadd9 ]

|------0--0------0---0--0---0-|------0--0------0---0---0----0---| |
|--0---0--0---0--0---0--0---0-|--0---0--0---0--0---0---0----0---| |
|--0---0--0---0--0---0--0---0-|--0---0--0---0--0---0---0----0---|*|
|--0---0--0---0--0---0--0---0-|--0---0--0---0--0---0---0----0---|*| x 2
|--2---2 /4---4 /5---5 /7---7-|--5---5 /7---7 /9---9  /12---12--| |
|-----------------------------|---------------------------------| |
   ^   v  ^   v  ^   v  ^   v    ^   v  ^   v  ^   v   ^    v


   [ A5 ]        [ Eadd11 (2) ]   [ Bm7add11 ]

|--0--0-0--0-0-0-0--0-0-0--0---|------0--0------0---0--0---0-|
|--0--0-0--0-0-0-0--0-0-0--0---|--0---0--0---0--0---0--0---0-|
|--3--3-3--3-3-0-5--5-5-5--5---|--0---0--0---0--0---0--0---0-|
|--2--2-2--2-2-2-6--6-6-6--6-0-|--0---0--0---0--0---0--0---0-|
|--0--0-0--0-0---7--7-7-7--7-0-|--2---2 /4---4 /5---5 /7---7-|
|----------------0--0-0-0--0-0-|-----------------------------|
   ^  ^ v  v ^ v ^  ^ v ^  ^ v    ^   v  ^   v  ^   v  ^   v


   [ F#5 ]        [ Em ]

|-------0--------------0---0---0-||
|-------0---0-0---0----0-0-0---0-||
|--0----0-0-0-0-0-0----0-0-0-0-0-||
|--4--4-4-4-4-4-4-2--2---2---2-0-||
|--4--4-4-4-4-4-4-2--2---2---2---||
|--2--2---2-2-2-0-0--0---0---0---||
   ^  ^ v ^ v ^ v ^  ^ v ^ v ^ v



The last rose of summer is gone.
Long gone.
The last rose of summer is gone.



================================================================================
Break/Outro:                                              [ Time 03:29 - 05:19 ]
================================================================================


    [ Dadd9 ]                        [ Bm7add11 ]
                                  |__________________________[1-11]
||------0--0------0---0---0----0--|------0--0------0---0--0---0-| |
||--0---0--0---0--0---0---0----0--|--0---0--0---0--0---0--0---0-| |
||--0---0--0---0--0---0---0----0--|--0---0--0---0--0---0--0---0-|*|
||--0---0--0---0--0---0---0----0--|--0---0--0---0--0---0--0---0-|*| x 12
||--5---5 /7---7 /9---9  /12---12-|--2---2 /4---4 /5---5 /7---7-| |
||--------------------------------|-----------------------------| |
    ^   v  ^   v  ^   v   ^    v     ^   v  ^   v  ^   v  ^   v


|_______________________[12]
|------0-0----0-----------||
|--0---0-0--0-0-----------||
|--0---0-0--0-0-----------||
|--0---0-0--0-0-----------||
|--2---2-2--2-2-----------||
|-------------------------||
   ^   v ^  ^ v




And when I ride with you tonight,
We can move, at the speed of light.
Forever young, forever bright,
Into the stars we rock tonight.
The last rose of summer is gone x 4



================================================================================
End
================================================================================


Tab summary:        Intro
                    Verse 1
                    Chorus 1
                    Verse 2
                    Chorus 2
                    Guitar Solo Backing
                    Break/Outro

                    END





Comments


Popular Smashing Pumpkins tabs & chords
By Starlight Bass Tabs
Spaceboy Bass Tabs
Starla Bass Tabs
The Groover 1 Bass Tabs
Ava Adore 4 Chords
Untitled Chords
Farewell And Goodnight 1 Tabs
Let Me Give The World To You 1 Tabs
Transformer Tabs
Bleed Ukulele


Song lyrics



↑ Back to top | Tablatures and chords are parodies/interpretations of the original songs. You may use it for private study, scholarship, research or language learning purposes only
© 2014 AZChords.com Contact us | Privacy policy | DMCA | Add/correct tabs | Request tabs | Top 50 tabs