>
 >
Speed Kills

Speed Kills Bass Tabs

Smashing Pumpkins - Speed Kills chords, tabs, tablatures, lyrics

Guitar lessons | Add/correct | Request | Top 50 tabs Artists:  A B C D E F G H I J K L M N O P Q R S T U V W X Y Z 0-9

Speed Kills Bass Tabs – Smashing Pumpkins

CD, Sheet music, Poster

Do you like Speed Kills? Share with your friends now
Bass TabsTabsTabs v2
================================================================================
                       S M A S H I N G   P U M P K I N S

                                       -

                             S P E E D   K I L L S
================================================================================


                       STAND INSIDE YOUR LOVE (UK SINGLE)
                            (c) Virgin Records (2000)


                               Tune Down a 1/2 Step
                                   D# G#  C# F#

                                  Tempo = 67 BPM
                               Time Signature = 4/4



                          -----------------------------

                                 PADDY MCMULLAN

                                   Version 1.0
                                29th February 2012
                             -----------------------



================================================================================
Intro:                                                         [ 00:00 - 00:36 ]
================================================================================


Rest for 10 bars



================================================================================
Verse 1:                                                       [ 00:36 - 01:21 ]
================================================================================


                                |__________________________[1,2,4]
||------------------------------|------------------------------| |
||------------------------------|------------------------------|*|
||------------------------7---7-|--2---(2/4)---4-5---(5/7)---7-|*| x 4
||--2---2-(2/9)---9-0---0-------|------------------------------| |

|_________________________________[3]
|-----------------------------------|
|-----------------------------------|
|--5---(5/7)---(7/9)---(9/12)---12\ |
|-----------------------------------|



When the full band kicks in at the 36-second mark play the first two bars
twice, and then play all of the above as written when the vocals begin.



================================================================================
Chorus 1:                                                 [ Time 01:21 - 01:48 ]
================================================================================


||------------------------------|-----------------------------|
||------------------------------|-----------------------------|
||--2---(2/4)---4-5---(5/7)---7-|---------------2---(2/4)---4-|
||------------------------------|--2---(2/5)------------------|


|------------------------------|---------------------------------|
|------------------------------|---------------------------------|
|--2---(2/4)---4-5---(5/7)---7-|---------------------------------|
|------------------------------|--2---(2/5)-(5/7)-7-0---0-0-0--0-|


|-------------------------|-----------------|------------------------------||
|-------------------------|-----------------|-------------------------9----||
|--7---7--7--7-5---5----5-|--4------------4-|--(2   / 4   / 5   / 7)----7--||
|-------------------------|-----------------|------------------------------||



================================================================================
Verse 2: Repeat Part 1 twice                              [ Time 01:48 - 02:22 ]
================================================================================


                                |__________________________[1,2,4]
||------------------------------|------------------------------| |
||------------------------------|------------------------------|*|
||------------------------7---7-|--2---(2/4)---4-5---(5/7)---7-|*| x 4
||--2---2-(2/9)---9-0---0-------|------------------------------| |

|____________________________________________________________________[3]
|-----------------------| |-------------| |----------------------------|
|-----------------------|2|-------------|4|----------------------------|
|--5---5-5---5-4--------|/|--(4)------4-|/|--2---(2/4)  /  5  /  7---7-|
|-----------------------|4|-------------|4|----------------------------|



================================================================================
Chorus 2:                                                 [ Time 02:22 - 02:49 ]
================================================================================


||------------------------------|----------------------------|
||------------------------------|----------------------------|
||--2---(2/4)---4-5---(5/7)---7-|--------------2---(2/4)---4-|
||------------------------------|--2---(2/5)-----------------|


|------------------------------|-----------------------------|
|------------------------------|-----------------------------|
|--2---(2/4)---4-5---(5/7)---7-|-----------------------------|
|------------------------------|--2---(2/5 /7)--0---0-0-0--0-|


|-------------------------|---------------------|-----------------------||
|-------------------------|---------------------|-----------------------||
|--7---7--7--7------------|--4----------------4-|--5------------5-5---5-||
|--------------7---7----7-|---------------------|-----------------------||



================================================================================
Guitar Solo:                                              [ Time 02:49 - 03:29 ]
================================================================================


||----------------------------|-----------------------------------|
||----------------------------|-----------------------------------|
||----------------------7---7-|--5---(5/7)---(7/9)---(9/12)---12\ |
||--5---(5/9)---9-0---0-------|-----------------------------------|


|------------------------------|-----------------------------------| |
|------------------------------|-----------------------------------|*|
|--2---(2/4)---4-5---(5/7)---7-|--5---(5/7)---(7/9)---(9/12)---12\ |*| x 3
|------------------------------|-----------------------------------| |


||------------------------------|----------------------------||
||------------------------------|----------------------------||
||--2---(2/4)---4-5---(5/7)---7-|--------4---4------- /7---7-||
||------------------------------|--2---2-------0---0---------||



================================================================================
Break/Guitar Solo 2/Outro:                                [ Time 03:29 - 05:19 ]
================================================================================


||-----------------------------------|------------------------------| |
||-----------------------------------|------------------------------|*|
||--5---(5/7)---(7/9)---(9/12)---12\ |--2---(2/4)---4-5---(5/7)---7-|*| x 10
||-----------------------------------|------------------------------| |


||-------------------------*---------|------------------------------|
||-----------------------------------|------------------------------|
||--5---(5/7)---(7/9)---(9/11)---11\ |--2---(2/4)---4-5---(5/7)---7-|
||-----------------------------------|------------------------------|

* Notice that 12 becomes 11 in this bar (and only this bar)


|-----------------------------------|-------------------------|
|-----------------------------------|-------------------------|
|--5---(5/7)---(7/9)---(9/12)---12\ |--2---2------2---2-2---2-|
|-----------------------------------|-------------------------|

     
|-----------R-----------||
|-----------E--       --||
|--2---2-2--S--       --||
|-----------T-----------||



================================================================================
End
================================================================================


Tab summary:        Intro [Rest for 10 bars]
                    Verse 1
                    Chorus 1
                    Verse 2
                    Chorus 2
                    Guitar Solo
                    Break/Guitar Solo 2/Outro

                    END





Comments


Popular Smashing Pumpkins tabs & chords
Blissed And Gone 1 Chords
The Crying Tree Of Mercury Chords
Thirty Three Chords
99 Floors Tabs
By Starlight Tabs
Disarm (Intro) Tabs
Farewell And Goodnight Tabs
Luna Tabs
Apathys Last Kiss Ukulele
Mayonaise 2 Ukulele


Song lyrics



↑ Back to top | Tablatures and chords are parodies/interpretations of the original songs. You may use it for private study, scholarship, research or language learning purposes only
© 2014 AZChords.com Contact us | Privacy policy | DMCA | Add/correct tabs | Request tabs | Top 50 tabs