>
 >
Spaceboy 2

Spaceboy 2 Bass Tabs

Smashing Pumpkins - Spaceboy 2 chords, tabs, tablatures, lyrics

Guitar lessons | Add/correct | Request | Top 50 tabs Artists:  A B C D E F G H I J K L M N O P Q R S T U V W X Y Z 0-9

Spaceboy 2 Bass Tabs – Smashing Pumpkins

CD, Sheet music, Poster

Do you like Spaceboy 2? Share with your friends now
Bass TabsBass Tabs v2ChordsTabsTabs v2Ukulele
================================================================================
                       S M A S H I N G   P U M P K I N S

                                       -

                                S P A C E B O Y
================================================================================


                                 SIAMESE DREAM
                           (c) Virgin Records (1993)


                                Standard Tuning
                                    E A  D G

                                 Tempo = 60 BPM
                              Time Signature = 4/4



                          -----------------------------

                                 PADDY MCMULLAN

                                  Version 1.0
                                4th January 2011
                             -----------------------

                             Tablature Symbols Used:



 (/)       -  Legato Slide (Blank space indicates length of slide)
 \         -  Slide Down to/Down From (Blank space indicates length of slide)
 /         -  Slide Up To/Up From (Blank space indicates length of slide)
 ( )       -  Ghost Note/Tied Note/Implied Note



================================================================================
Part 1: Rest for 12 bars                                  [ Time 00:00 - 00:57 ]
================================================================================

================================================================================
Part 2:                                                   [ Time 00:47 - 01:12 ]
================================================================================


||---------------------------|--------------------------|
||---------------------------|--------------------------|
||---------------------------|--------------------------|
||--3--------3-3--3--3-2-3-2-|- /5--------5-5--5--5---5-|


|-----------------------|---------------------------|----------------------|
|-----------------------|---------------------------|----------------------|
|-----------------------|---------------------------|-------------5--------|
|--0--------0-0------0--|--8--------8-8--8--8--8-7\ |--3--------3----------|


|-------------------||
|-------------------||
|--7----------------||
|-------------------||



================================================================================
Part 3: Rest for 13 bars                                  [ Time 01:12 - 01:42 ]
================================================================================

================================================================================
Part 4:                                                   [ Time 01:42 - 02:09 ]
================================================================================


| |------------------| |-----------------------------|
|2|------------------|4|-----------------------------|
|/|------------------|/|-----------------------------|
|4|----8-8- \-3--- / |4| -7---7-7------8-8- \ 3--- / |


|-----------------------------|-----------------------------|
|-----------------------------|-----------------------------|
|-----------------------------|-----------------------------|
|--7---7-7------8-8- \ 3--- / | -7---7-7------8-8- \ 3--- / |


|-----------------------------|-----------------------------|
|-----------------------------|-----------------------------|
|-----------------------------|-----------------------------|
|--7---7-7------8-8- \ 3--- / | -7---7-7------8-8- \ 3--- / |


|-----------------------------|-----------------------------||
|-----------------------------|-----------------------------||
|-----------------------------|-----------------------------||
|--7---7-7------8-8- \ 3--- / | -7---7-7------8-8- \ 3--- \ ||



================================================================================
Part 5:                                                   [ Time 02:09 - 02:26 ]
================================================================================


||--------------------------|---------------------------|
||--------------------------|---------------------------|
||--------------------------|---------------------------|
||--1---1-1--0---0-0--0---0-|--1---1-1--3---3-3--3--3 \ |


|--------------------------|--------------------------| |---------------||
|--------------------------|--------------------------|3|---------------||
|--------------------------|--------------------------|/|---------------||
|--1---1-1--0---0-0--0---0-|--1---1-1--3---3-3---3-3--|8|--(3)-3-3--3 / ||



================================================================================
Part 6:                                                   [ Time 02:26 - 03:03 ]
================================================================================


||--------------------------|------------------------------|
||--------------------------|------------------------------|
||-------------7----9-- \ 0-|------------------------------|
||--8----10-----------------|--3--------3-3--(3\2)-3-2-3-2-|


|------------------------------|---------------------------|
|------------------------------|---------------------------|
|------------------------------|--7----9----10-- \ -0--2-2-|
|-- /5----7---7-8--8--10--8-10-|---------------------------|


|--------------------------|--------------------------|
|--------------------------|--------------------------|
|--3----3---3-3--3  \  0-0-|--------------5----5--3-5-|
|--------------------------|--3----3--2-3-------------|


|------------------------------|-------------------------|
|------------------------------|-------------------------|
|--7---5-7--8---8-7-7-5 h 7-5--|-------------------------|
|------------------------------|--8----7---7-5--5--7 \ 5-|


|----------------------| |-------------||
|----------------------|2|-------------||
|-------------5--------|/|--(5)---- \--||
|--3------2-3----------|4|-------------||



================================================================================
Outro:                                                            [ Time 03:03 ]
================================================================================


||-------------------------|--------------------------| |
||-------------------------|--------------------------|*|
||-------------------------|--------------------------|*| x 5
||--1--------1-1---1-1---1-|--3--------3-3---3-2--2-2-| |


|-------------------------|-----------------------|-------------------||
|-------------------------|-----------------------|-------------------||
|-------------------------|-----------------------|-------------------||
|--1--------1-1---1-1---1-|--3--------3-3----2----|--1----------------||



================================================================================
End
================================================================================


Tab summary:        Part 1
                    Part 2
                    Part 3
                    Part 4
                    Part 5
                    Part 6
                    Outro

                    END





Comments


Popular Smashing Pumpkins tabs & chords
Bye June Chords
With Every Light Chords
...Said Sadly 1 Tabs
1979 2 Tabs
Bullet With Butterfly Wings 3 Tabs
Hummer Tabs
Jupiter's Lament Tabs
Spaceboy 1 Tabs
East Ukulele
Go Ukulele


Song lyrics



↑ Back to top | Tablatures and chords are parodies/interpretations of the original songs. You may use it for private study, scholarship, research or language learning purposes only
© 2014 AZChords.com Contact us | Privacy policy | DMCA | Add/correct tabs | Request tabs | Top 50 tabs