>
 >
Spaceboy

Spaceboy Guitar Tabs

Smashing Pumpkins - Spaceboy chords, tabs, tablatures, lyrics

Guitar lessons | Add/correct | Request | Top 50 tabs Artists:  A B C D E F G H I J K L M N O P Q R S T U V W X Y Z 0-9

Spaceboy Guitar Tabs – Smashing Pumpkins

CD, Sheet music, Poster

Do you like Spaceboy? Share with your friends now
Bass TabsBass Tabs v2ChordsTabsTabs v2Ukulele
================================================================================
                       S M A S H I N G   P U M P K I N S

                                       -

                                S P A C E B O Y
================================================================================


                                 SIAMESE DREAM
                           (c) Virgin Records (1993)


                                Standard Tuning
                                  E A D G B E

                                 Tempo = 60 BPM
                              Time Signature = 4/4



                          -----------------------------

                                 PADDY MCMULLAN

                                  Version 1.0
                                4th January 2011
                             -----------------------

                             Tablature Symbols Used:



 (/)       -  Legato Slide (Blank space indicates length of slide)
 \         -  Slide Down to/Down From (Blank space indicates length of slide)
 /         -  Slide Up To/Up From (Blank space indicates length of slide)
 ( )       -  Ghost Note/Tied Note/Implied Note
 x         -  Muted Note/Dead Note
 v         -  Up Stroke/Strum Up (From high to low strings)
 ^         -  Down Stroke/Strum down (From low to high strings)


                             -----------------------
                                  Chords Used:
                             -----------------------

                 G         Am7         Em        C (1)      C (2)

           ||----3----||----3----||----0----||----0----||----3----||
           ||----3----||----1----||----0----||----1----||----1----||
           ||----0----||----2----||----0----||----0----||----0----||
           ||----0----||----2----||----2----||----2----||----2----||
           ||----2----||----0----||----2----||----3----||----3----||
           ||----3----||---------||----0----||---------||---------||


                 D7         G5        F#5         F5        F7M

           ||----2----||----0----||----0----||----0----||----0----||
           ||----1----||----0----||----0----||----0----||----1----||
           ||----2----||----0----||----0----||----0----||----2----||
           ||----0----||----5----||----4----||----3----||----3----||
           ||---------||----5----||----4----||----3----||----3----||
           ||---------||----3----||----2----||----1----||----1----||




================================================================================
Part 1: Acoustic Guitar (Strummed)                        [ Time 00:00 - 00:57 ]
================================================================================


| |---------------------------------|---------------------------------|
| |--0---------0-0--0---------------|--0---------0-0--0---------------|
|9|--0----0-0--0-0--0---------------|--0----0-0--0-0--0---------------|
|/|-(3/5)-5-5-(5/9)-9---------(9)\--|-(3/5)-5-5-(5/9)-9---------(9)\--|
|8|-(3/5)-5-5-(5/9)-9---------(9)\--|-(3/5)-5-5-(5/9)-9---------(9)\--|
| |-(1/3)---3-(3/7)-----------(7)\--|-(1/3)---3-(3/7)-7---------(7)\--|
     ^    ^ v  ^ v  ^                  ^    ^ v  ^ v  ^


| |-----------------------------------| |--0-------------0-------0----|
| |--0---------0-0--0---0-0-----------| |--0-------------0-------0----|
|4|--0----0-0--0-0--0---0-0-----0-----|3|--0---------0---0----0--0--0-|
|/|-(3/5)-5-5-(5/9)-9---x-7-/10-10----|/|--10-----10-10--10---10-9\ 2-|
|4|-(3/5)-5-5-(5/9)-9---x-7-/10-10----|4|--10--10-10-10--10---10-9\ 2-|
| |-(1/3)---3-(3/7)-----0-5--0--8-----| |--8---8--8--8---8----8--7\ 0-|
     ^    ^ v  ^ v  ^   v ^  v  ^          ^   ^  ^  ^   ^    ^  ^  ^


                    Feel it                           break your bones
| |---------------------------------|---------------------------------|
| |--0---------0-0--0---------------|--0---------0-0--0---------------|
|4|--0----0-0--0-0--0---------------|--0----0-0--0-0--0---------------|
|/|-(3/5)-5-5-(5/9)-9---------(9)\--|-(3/5)-5-5-(5/9)-9---------(9)\--|
|4|-(3/5)-5-5-(5/9)-9---------(9)\--|-(3/5)-5-5-(5/9)-9---------(9)\--|
| |-(1/3)---3-(3/7)-7---------(7)\--|-(1/3)---3-(3/7)-----------(7)\--|
     ^    ^ v  ^ v  ^                  ^    ^ v  ^ v  ^


                  Mister      Jones
|-----------------------------------| |----------------0-------0----|
|--0---------0-0--0---0-0-----------| |--0-------------0-------0----|
|--0----0-0--0-0--0---0-0-----0-----|3|--0---------0---0----0--0--0-|
|-(3/5)-5-5-(5/9)-9---x-7-/10-10----|/|--10-----10-10--10---10-9\ 2-|
|-(3/5)-5-5-(5/9)-9---x-7-/10-10----|4|--10--10-10-10--10---10-9\ 2-|
|-(1/3)---3-(3/7)-----0-5--0--8-----| |--8---8--8--8---8----8--7\ 0-|
   ^    ^ v  ^ v  ^   v ^  v  ^          ^   ^  ^  ^   ^    ^  ^  ^


                    Taste me                          as I bleed
| |---------------------------------|---------------------------------|
| |--0---------0-0--0---------------|--0---------0-0--0---------------|
|4|--0----0-0--0-0--0---------------|--0----0-0--0-0--0---------------|
|/|-(3/5)-5-5-(5/9)-9---------(9)\--|-(3/5)-5-5-(5/9)-9---------(9)\--|
|4|-(3/5)-5-5-(5/9)-9---------(9)\--|-(3/5)-5-5-(5/9)-9---------(9)\--|
| |-(1/3)---3-(3/7)-7---------(7)\--|-(1/3)---3-(3/7)-7---------(7)\--|
     ^    ^ v  ^ v  ^                  ^    ^ v  ^ v  ^


                  Taste my    need           and Spaceboy I missed
|-----------------------------------| |--0-------------0-----------||
|--0---------0-0--0---0-0-----------| |--0-------------0-----------||
|--0----0-0--0-0--0---0-0-----0-----|3|--0---------0---0----0--0-0-||
|-(3/5)-5-5-(5/9)-9---x-7-/10-10----|/|--10-----10-10--10---10-0-0-||
|-(3/5)-5-5-(5/9)-9---x-7-/10-10----|4|--10--10-10-10--10---10-0-0-||
|-(1/3)---3-(3/7)-----0-5--0--8-----| |--8---8--8--8---8----8----3-||
   ^    ^ v  ^ v  ^   v ^  v  ^          ^   ^  ^  ^   ^    ^  ^ v



================================================================================
Part 2:                                                   [ Time 00:47 - 01:12 ]
================================================================================


     [G]                            [A7m]
   ...missed you                                spinning round my
| |--------3------3----3---3---3-|--3----3----0-0----0-0-0-----|
| |--3-----3------3----3---3---0-|--1----1----0-0----0-0-0---0-|
|4|--0-----0----0-0----0-0-0-0-0-|--2----2----2-2--2-2-2-2-2-0-|
|/|--0-----0--0-0-0--0---0-0-0-0-|--2----2--2-2-2--2-2-2---2-0-|
|4|--2--2--2--2-2-2--2---2---2-0-|--0----0--0---0--0---0---0---|
| |--3--3--3--3---3--3---3---3---|-----------------------------|
     ^  ^  ^  ^ v ^  ^ v ^ v ^ v    ^    ^  ^ v ^  ^ v ^ v ^ v


   [Em]                          [C (2)]
   Head                                     and any way you
|--------0----0-0-0-0-0--0-0-0-|-------3-----------3-3--0---|
|--------0----3-3-3-3-1--1-1-1-|--1----1----1-1----1-0--0-0-|
|--------0----0-0-0-0-0--0-0-0-|--0----0--0-0-0----0-0--0-0-|
|--2-----2--2-2-2-2-2-2--2-2-2-|--2-------2-2-2--2-2-2--0-0-|
|--2-----2--2---2-2-2-2--2-2-2-|--3-------3-3-3--3---3--3-0-|
|--0--0--0--0---0---0-0--0-0-0-|----------------------------|
   ^  ^  ^  ^ v ^ v ^ v  v ^ v    ^    ^  ^ v ^  ^ v ^  ^ v


   [G]          [D7]           [Em]
Choose me you'll break  instead
|--3------------2----2------|-------------------||
|--3-----3--0-1-1----1--0---|--0----------------||
|--0-----0--0-2-2----2--0-0-|--0----------------||
|--0-----0--0---0----0--0-2-|--2----------------||
|--2--2--2--------------0-2-|--2----------------||
|--3--3--3----------------0-|--0----------------||
   ^  ^  ^  ^ v ^    ^  ^ v    ^



================================================================================
Part 3:                                                   [ Time 01:12 - 01:42 ]
================================================================================


                   Watch me                          death defy
||---------------------------------|---------------------------------|
||--0---------0-0--0---------------|--0---------0-0--0---------------|
||--0----0-0--0-0--0---------------|--0----0-0--0-0--0---------------|
||-(3/5)-5-5-(5/9)-9---------(9)\--|-(3/5)-5-5-(5/9)-9---------(9)\--|
||-(3/5)-5-5-(5/9)-9---------(9)\--|-(3/5)-5-5-(5/9)-9---------(9)\--|
||-(1/3)---3-(3/7)-7---------(7)\--|-(1/3)---3-(3/7)-7---------(7)\--|
    ^    ^ v  ^ v  ^                  ^    ^ v  ^ v  ^


                 Defile my    life
|-----------------------------------| |--0-------------0-------0----|
|--0---------0-0--0---0-0-----------| |--0-------------0-------0----|
|--0----0-0--0-0--0---0-0-----0-----|3|--0---------0---0----0--0--0-|
|-(3/5)-5-5-(5/9)-9---x-7-/10-10----|/|--10-----10-10--10---10-9\ 2-|
|-(3/5)-5-5-(5/9)-9---x-7-/10-10----|4|--10--10-10-10--10---10-9\ 2-|
|-(1/3)---3-(3/7)-----0-5--0--8-----| |--8---8--8--8---8----8--7\ 0-|
   ^    ^ v  ^ v  ^   v ^  v  ^          ^   ^  ^  ^   ^    ^  ^  ^


                    I don't need                      I don't care
| |---------------------------------|---------------------------------|
| |--0---------0-0--0---------------|--0---------0-0--0---------------|
|4|--0----0-0--0-0--0---------------|--0----0-0--0-0--0---------------|
|/|-(3/5)-5-5-(5/9)-9---------(9)\--|-(3/5)-5-5-(5/9)-9---------(9)\--|
|4|-(3/5)-5-5-(5/9)-9---------(9)\--|-(3/5)-5-5-(5/9)-9---------(9)\--|
| |-(1/3)---3-(3/7)-7---------(7)\--|-(1/3)---3-(3/7)-7---------(7)\--|
     ^    ^ v  ^ v  ^                  ^    ^ v  ^ v  ^


                  Please               I wanna go
|-----------------------------| |---------------------||
|--0------0--0-0--0----0------| |-(0)--0--0--0--0-----||
|--0----0-0--0-0--0----0------|2|-(0)--0--0--0--0-----||
|-(3/5)-5-5-(5/9)-9----9------|/|-(9)--10-10-10\5-- / ||
|-(3/5)-5-5-(5/9)-9----9------|4|-(9)--10-10-10\5-- / ||
|-(1/3)---3-(3/7)-7----7------| |-(7)--8--8--0--3-- / ||
   ^    ^ v  ^ v  ^    ^               ^  ^  ^  ^



================================================================================
Part 4:                                                   [ Time 01:42 - 02:09 ]
================================================================================


  ...home         I wanna go        home          I wanna go
     Home         I wanna go        home          'Cause when a lover
     Aches        that's when a lover breaks      I wanna go...
                                  |_____________________________[1-6]
| |-------------------------------|-------------------------------| |
| |--0----0-0-----0--0--0--0------|--0----0-0-----0--0--0--0------| |
|4|--0----0-0-----0--0--0--0------|--0----0-0-----0--0--0--0------|*|
|/|--9--9-9-9-----10-10-10\5--- / |--9--9-9-9-----10-10-10\5--- / |*| x 7
|4|--9--9-9-9-----10-10-10\5--- / |--9--9-9-9-----10-10-10\5--- / | |
| |--7--7-7-7-----8--8--0--3--- / |--7--7-7-7-----8--8--0--3--- / | |
     ^  ^ v ^     ^  ^  ^  ^         ^  ^ v ^     ^  ^  ^  ^


...Home         I wanna go...
|______________________________[7]
|-------------------------------||
|--0----0-0-----0--0--0--0--0---||
|--0----0-0-----0--0--0--0--0-0-||
|--9--9-9-9-----10-10-10\5--5-3-||
|--9--9-9-9-----10-10-10\5--5-3-||
|--7--7-7-7-----8--8--0--3--3-0-||
   ^  ^ v ^     ^  ^  ^  ^  ^ v



================================================================================
Part 5:                                                   [ Time 02:09 - 02:26 ]
================================================================================


    [F5]      [Em]
 ...home                         [F]       [G]
||--0-------0-----------------|--0-------0-----3-----3--3-0-|
||--0---0-0-0-0---0-0--0----0-|--0---0-0-0-3---3-3-3-3--3-0-|
||--0---0-0-0-0---0-0--0--0-0-|--0---0-0-0-0---0-0-0-0--0-0-|
||--3---3-3-3-2---2-2--2--0-0-|--3---3-3-0-0---0-0-0-0--0-0-|
||--3---3-3-3-2---2-2--2--0-0-|--3---3-3-3-2---2-2-2-2--2---|
||--1-----1---0---0-0--0--0---|--1-----1---3---3-3-3-3--3---|
    ^   v ^ v ^   v ^  ^  ^ v    ^   v ^ v ^   v ^ v ^  ^ v


   [F5]      [Em]               [F5]      [G]
|--0-------0-----------------|--0-------0-----3-----3-3--| |-(3)-3-------3-||
|--0---0-0-0-0---0-0--0----0-|--0---0-0-0-3---3-3---3-3--| |-(3)-3-3---3-3-||
|--0---0-0-0-0---0-0--0--0-0-|--0---0-0-0-0---0-0---0-0--|3|-(0)-0-0-0-0-0-||
|--3---3-3-3-2---2-2--2--0-0-|--3---3-3-0-0---0-0---0-0--|/|-(0)-0-0-0-0-0-||
|--3---3-3-3-2---2-2--2--0-0-|--3---3-3-3-2---2-2---2-2--|8|-(2)---2-2-2-2-||
|--1-----1---0---0-0--0--0---|--1-----1---3---3-3-----3--| |-(3)---3-3-3-3-||
   ^   v ^ v ^   v ^  ^  ^ v    ^   v ^ v ^   v ^   v ^          v ^ v ^ v



================================================================================
Part 6:                                                   [ Time 02:26 - 03:03 ]
================================================================================


    [C (2)]                       [G]
                 Spaceboy they'll kill me
||--------3----3-3----3------3-|--------3------3----3-3-----3-|
||--1-----1----1-1--1-1-1--1-0-|--3-----3------3----3-3-----0-|
||--0-----0--0-0-0--0-0-0--0-0-|--0-----0----0-0----0-0-0-0-0-|
||--2--2--2--2---2--2-2-2--2-0-|--0-----0--0-0-0--0---0-0-0-0-|
||--3--3-----3---3--3-3-3--3---|--2--2--2--2-2-2--2---2-2-2-0-|
||-----------------------------|--3--3--3--3---3--3---3-3-3---|
    ^  ^  ^  ^ v ^  ^ v ^  ^ v    ^  ^  ^  ^ v ^  ^ v ^ v ^ v


   [Am7]                          [Em]
             Before I'm dead and gone
|--3------3----3-3----3-3-3-3---|--------0----0-0-0-0-0--0-0-0-|
|--1------1----1-1----1-1-1-1-0-|--------0----3-3-3-3-1--1-1-1-|
|--2---2--2----2-2--2-2-2-2-2-0-|--------0----0-0-0-0-0--0-0-0-|
|--2---2--2--2-2-2--2-2-2---2-0-|--2-----2--2-2-2-2-2-2--2-2-2-|
|--0---0--0--0---0--0---0---0---|--2-----2--2---2-2-2-2--2-2-2-|
|-------------------------------|--0--0--0--0---0---0-0--0-0-0-|
   ^   ^  ^  ^ v ^  ^ v ^ v ^ v    ^  ^  ^  ^ v ^ v ^ v  v ^ v


   [C]                          [G]          [D7]
             And any way you choose me   it won't be wrong
|-------0-----------0-0--0---|--3------------2----2------|
|--1----1----1-0----0-0--0-0-|--3-----3--0-1-1----1--0---|
|--0----0--0-0-0----0-0--0-0-|--0-----0--0-2-2----2--0-0-|
|--2-------2-2-2--2-2-2--0-0-|--0-----0--0---0----0--0-0-|
|--3-------3-3-3--3---3--3-0-|--2--2--2--------------0-0-|
|----------------------------|--3--3--3------------------|
   ^    ^  ^ v ^  ^ v ^  ^ v    ^  ^  ^  ^ v ^    ^  ^ v


   [Em]      [F7M]             [C (2)]
                                          And any way you
|------0---0-------------0---|-------3-----------0-0--0---|
|--0---0-0-0-----1----1--1-1-|--1----1----1-0----0-0--0-0-|
|--0---0-0-0-2---2-2--2--2-0-|--0----0--0-0-0----0-0--0-0-|
|--2---2-2-2-3---3-3--3--3-0-|--2----2--2-2-2--2-2-2--0-0-|
|--2---2-2-2-3---3-3--3------|--3-------3-3-3--3---3--3-0-|
|--0-----0-0-1---1-1--1------|----------------------------|
   ^   v ^ v ^   v ^  ^  ^ v    ^    ^  ^ v ^  ^ v ^  ^ v


   [G]          [D7]
   Choose me we won't be[long]
|--3------------2--------| |--(2)------||
|--3-----3--0-0-1--------| |--(1)------||
|--0-----0--0-0-2--------|2|--(2)------||
|--0-----0--0-0-0--------|/|--(0)------||
|--2--2--2---------------|4|-----------||
|--3--3--3---------------| |-----------||
   ^  ^  ^  ^ v ^



================================================================================
Outro:                                                            [ Time 03:03 ]
================================================================================


     [F5]                          [G5]              [F#5]
[be]long                                   we won't be...
| |-----------------------------|----------------------------|
| |--0----0------0------0--0--0-|--0----0------0-----0-------|
|4|--0----0----0-0--0-0-0--0--0-|--0----0--0-0-0---0-0---0-0-|
|/|--3----3--3-3-3--3-3-3--3 /5-|--5----5--5-5-5---5-4---4-4-|
|4|--3----3--3-3-3--3-3-3--3 /5-|--5----5--5-5-5---5-4---4-4-|
| |--1----1--1-1-1--1-1-1--1 /3-|--3----3--3-3-3---3-2---2-2-|
     ^    ^  ^ v ^  ^ v ^  ^  v    ^    ^  ^ v ^   v ^   ^ v


   [F5]                          [G5]              [F#5]
...long                                  we won't be...
|-----------------------------|----------------------------|
|--0----0------0------0--0--0-|--0----0------0-----0-------|
|--0----0----0-0--0-0-0--0--0-|--0----0--0-0-0---0-0---0-0-|
|--3----3--3-3-3--3-3-3--3 /5-|--5----5--5-5-5---5-4---4-4-|
|--3----3--3-3-3--3-3-3--3 /5-|--5----5--5-5-5---5-4---4-4-|
|--1----1--1-1-1--1-1-1--1 /3-|--3----3--3-3-3---3-2---2-2-|
   ^    ^  ^ v ^  ^ v ^  ^  v    ^    ^  ^ v ^   v ^   ^ v


   [F5]                          [G5]              [F#5]
...long                                  we  won't  be...
|-----------------------------|-----------------------------|
|--0----0------0------0--0--0-|--0----0------0--0-0-0-------|
|--0----0----0-0--0-0-0--0--0-|--0----0--0-0-0--0-0-0---0-0-|
|--3----3--3-3-3--3-3-3--3 /5-|--5----5--5-5-5--5-5-4---4-4-|
|--3----3--3-3-3--3-3-3--3 /5-|--5----5--5-5-5--5-5-4---4-4-|
|--1----1--1-1-1--1-1-1--1 /3-|--3----3--3-3-3--3-3-2---2-2-|
   ^    ^  ^ v ^  ^ v ^  ^  v    ^    ^  ^ v ^  ^ v ^   ^ v


   [F5]                          [G5]              [F#5]
...long                                  we  won't be...
|-----------------------------|----------------------------|
|--0----0------0------0--0--0-|--0----0------0-----0-------|
|--0----0----0-0--0-0-0--0--0-|--0----0--0-0-0---0-0---0-0-|
|--3----3--3-3-3--3-3-3--3 /5-|--5----5--5-5-5---5-4---4-4-|
|--3----3--3-3-3--3-3-3--3 /5-|--5----5--5-5-5---5-4---4-4-|
|--1----1--1-1-1--1-1-1--1 /3-|--3----3--3-3-3---3-2---2-2-|
   ^    ^  ^ v ^  ^ v ^  ^  v    ^    ^  ^ v ^   v ^   ^ v


   [F5]                          [G5]              [F#5]
...long                                  we  won't be...
|-----------------------------|----------------------------|
|--0----0------0------0--0--0-|--0----0------0-----0-------|
|--0----0----0-0--0-0-0--0--0-|--0----0--0-0-0---0-0---0-0-|
|--3----3--3-3-3--3-3-3--3 /5-|--5----5--5-5-5---5-4---4-4-|
|--3----3--3-3-3--3-3-3--3 /5-|--5----5--5-5-5---5-4---4-4-|
|--1----1--1-1-1--1-1-1--1 /3-|--3----3--3-3-3---3-2---2-2-|
   ^    ^  ^ v ^  ^ v ^  ^  v    ^    ^  ^ v ^   v ^   ^ v


   [F5]                          [G5]            [F#5]    [F5]
...long
|-----------------------------|------------------------|-------------------||
|--0----0------0------0--0--0-|--0----0------0----0----|--0----------------||
|--0----0----0-0--0-0-0--0--0-|--0----0--0-0-0----0----|--0----------------||
|--3----3--3-3-3--3-3-3--3 /5-|--5----5--5-5-5----4----|--3----------------||
|--3----3--3-3-3--3-3-3--3 /5-|--5----5--5-5-5----4----|--3----------------||
|--1----1--1-1-1--1-1-1--1 /3-|--3----3--3-3-3----2----|--1----------------||
   ^    ^  ^ v ^  ^ v ^  ^  v    ^    ^  ^ v ^    ^       ^



================================================================================
End
================================================================================


Tab summary:        Part 1
                    Part 2
                    Part 3
                    Part 4
                    Part 5
                    Part 6
                    Outro

                    END





Comments


Popular Smashing Pumpkins tabs & chords
Jakie Blue Bass Tabs
Hello Kitty Kat Chords
Thats The Way My Love Is Chords
Blue Tabs
Bullet With Butterfly Wings 3 Tabs
Hello Kitty Kat Tabs
Siamese Dream 1 Tabs
Tonight (Reprise) Tabs
Freak Ukulele
Quiet Ukulele


Song lyrics



↑ Back to top | Tablatures and chords are parodies/interpretations of the original songs. You may use it for private study, scholarship, research or language learning purposes only
© 2014 AZChords.com Contact us | Privacy policy | DMCA | Add/correct tabs | Request tabs | Top 50 tabs