>
 >
Siva 3

Siva 3 Guitar Tabs

Smashing Pumpkins - Siva 3 chords, tabs, tablatures, lyrics

Guitar lessons | Add/correct | Request | Top 50 tabs Artists:  A B C D E F G H I J K L M N O P Q R S T U V W X Y Z 0-9

Siva 3 Guitar Tabs – Smashing Pumpkins

CD, Sheet music, Poster

Do you like Siva 3? Share with your friends now
Bass TabsBass Tabs v2ChordsTabsTabs v2Tabs v3Tabs v4Tabs v5Ukulele
================================================================================
                       S M A S H I N G   P U M P K I N S

                                       -

                                    S I V A
================================================================================


                                     GISH
                    (c) Virgin Records (1991) [2011 Reissue]


                                Standard Tuning
                                  E A D G B E

                                 Tempo = 105 BPM
                              Time Signature = 4/4



                          -----------------------------

                                 PADDY MCMULLAN

                                  Version 1.0
                                 8th April 2012
                             -----------------------

                             Tablature Symbols Used:



 (/)       -  Legato Slide (Blank space indicates length of slide)
 \         -  Slide Down to/Down From (Blank space indicates length of slide)
 /         -  Slide Up To/Up From (Blank space indicates length of slide)
 ( )       -  Ghost Note/Tied Note/Implied Note
 x         -  Muted Note/Dead Note
 15b17     -  Bend Note
 17r15     -  Release Bent Note
 5h7       -  Hammer-on
 7p5       -  Pull-off
 <5>       -  Pinch-harmonic/Artificial Harmonic
 v         -  Up Stroke/Strum Up (From high to low strings)
 ^         -  Down Stroke/Strum down (From low to high strings)
 1,2,3     -  Bar Numbers (Repeats are taken into account)
 |__[1]    -  Alternative Endings
 P.M....   -  Palm Mute




================================================================================
Part 1: Guitars 1 & 2 with Overdriven Tone                [ Time 00:00 - 00:36 ]
================================================================================


---------
Guitar 1: [ Left Channel ]
---------


  1,2,3                              * 3/4 bend
||--------------------------------------------| |
||--------------------------------------------| |
||--------------------------------------------|*|
||-----------------------------------*--------|*| x 3
||-(12h14)--14-14--14-12--14--14-(14b16r14)---| |
||--0-------0--0---0--0---0---0---0-----------| |

 4
|-------------------------------------||
|-------------------------------------||
|-------------------------------------||
|------------------------9--9\ 7------||
|--(12h14)--14-14--- \---9--9\ 7--0-0-||
|---0-------0--0-------0-7--7\ 5--0-0-||


(Full band enters)


  5,6,7
||--------------------------------------------| |
||--------------------------------------------| |
||--------------------------------------------|*|
||-----------------------------------*--------|*| x 3
||-(12h14)--14-14-14--12--14--14-(14b16r14)---| |
||--0-------0--0--0---0---0---0---0-----------| |

Note the slight variation in the duration of the third "14" note.


 8
|-------------------------------------||
|-------------------------------------||
|-------------------------------------||
|------------------------9--9\ 7------||
|--(12h14)--14-14--- \---9--9\ 7--0-0-||
|---0-------0--0-------0-7--7\ 5--0-0-||


  9(13)                              * 3/4 bend
||--------------------------------------------|
||--------------------------------------------|
||--------------------------------------------|
||-----------------------------------*--------|
||-(12h14)--14-14-14--12--14--14-(14b16r14)---|
||--0-------0--0--0---0---0---0---0-----------|
    "I spin off and lose my head"


 10(14)
|------------------------------------------|
|------------------------------------------|
|------------------------------------------|
|------------------------------------------|
|--(12h14)-14-14-14--14-12--14--14-14---14-| (Note the lack of a bend)
|---0------0--0--0---0--0---0---0--0----0--|
    "Throwing straight spark instead"


 11(15)                             * 3/4 bend
|--------------------------------------------|
|--------------------------------------------|
|--------------------------------------------|
|-----------------------------------*--------|
|-(12h14)--14-14-14--12--14--14-(14b16r14)---|
|--0-------0--0--0---0---0---0---0-----------|
   "Gather strength down in my hands"


 12(16)
|---------------------------------------| |
|---------------------------------------| |
|---------------------------------------|*|
|--------------------------5--5/ 7------|*| x 2
|--(12h14)-14-14-14--- \---5--5/ 7--0-0-| |
|---0------0--0--0-------0-3--3/ 5--0-0-| |
   "And dig it in the world I peel"




---------
Guitar 2: [ Right Channel ]
---------

  1               2,3
||--------------||--------------------------------| |
||--R--       --||--------------------------------| |
||--E--       --||--------------------------------|*|
||--S--       --||--------------------------------|*| x 2
||--T--       --||-(5h7)-7-7--7-5--7--7-(7b9r7)---| |
||--------------||--0----0-0--0-0--0--0-0---------| |

 4
|-------------------------------||
|-------------------------------||
|-------------------------------||
|------------------9--9\ 7------||
|--(5h7)--7-7------9--9\ 7--0-0-||
|---0-----0-0----0-7--7\ 5--0-0-||


(Full band enters)


  5,6,7
||--------------------------------| |
||--------------------------------| |
||--------------------------------|*|
||--------------------------------|*| x 3
||-(5h7)-7-7-7--5--7--7-(7b9r7)---| |
||--0----0-0-0--0--0--0-0---------| |

Note the slight variation in the duration of the third "14" note.


 8
|-------------------------------||
|-------------------------------||
|-------------------------------||
|------------------9--9\ 7------||
|--(5h7)--7-7------9--9\ 7--0-0-||
|---0-----0-0----0-7--7\ 5--0-0-||


  9(13)                              10(14)
||----------------------------------|------------------------------|
||----------------------------------|------------------------------|
||----------------------------------|------------------------------|
||----------------------------------|------------------------------|
||-(5h7)-7-7-7--7-5--7--7-(7b9r8)---|-(5h7)-7-7-7--7-5--7--7-7---7-|
||--0----0-0-0--0-0--0--0--0--------|--0----0-0-0--0-0--0--0-0---0-|


 11(15)                             12(16)
|----------------------------------|-------------------------------| |
|----------------------------------|-------------------------------| |
|----------------------------------|-------------------------------|*|
|----------------------------------|------------------5--5/ 7------|*| x 2
|-(5h7)-7-7-7--7-5--7--7-(7b9r7)---|-(5h7)-7-7-7------5--5/ 7--0-0-| |
|--0----0-0-0--0-0--0--0--0--------|--0----0-0-0----0-3--3/ 5--0-0-| |



================================================================================
Part 2: Guitars 1, 2 & 3                                  [ Time 00:36 - 00:53 ]
================================================================================


--------------
Guitars 1 & 2:
--------------


||---------------------------|---------------------------|
||-------8---------------0---|-------8---------------0---|
||-------7---------------0-0-|-------7---------------0-0-|
||-------6------5--5/ 7--0-0-|-------6------9--9/ 7--0-0-|
||-------7------5--5/ 7------|-------7------9--9/ 7------|
||--0---------0-3--3/ 5------|--0---------0-7--7/ 5------|


                                                   * 1/4 bend
|---------------------------|----------------------*---*---|
|-------8---------------0---|--8----8----8----8----8b--8b--|
|-------7---------------0-0-|--7----7----7----7----7---7---|
|-------6------5--5/ 7--0-0-|--6----6----6----6----6---6---|
|-------7------5--5/ 7------|--7--7-7--7-7--7-7--7-7---7---|
|--0---------0-3--3/ 5------|----------0---------0---------|


|----------------------------|---------------------------|
|------------------------0---|-------8---------------0---|
|-------9~~--------------0-0-|-------7---------------0-0-|
|-------x-------5--5/ 7--0-0-|-------6------9--9/ 7--0-0-|
|-------7~~-----5--5/ 7------|-------7------9--9/ 7------|
|--0----------0-3--3/ 5------|--0---------0-7--7/ 5------|


|---------------------------|----------------------------||
|-------8---------------0---|--8----8----8----8----8--8--||
|-------7---------------0-0-|--7----7----7----7----7--7--||
|-------6------5--5/ 7--0-0-|--6----6----6----6----6--6--||
|-------7------5--5/ 7------|--7--7-7--7-7--7-7--7-7--7--||
|--0---------0-3--3/ 5------|----------0---------0-------||



Only Guitar 1 plays the bends in bar 4



---------
Guitar 3: Distortion
---------


||-----------------------------------------|-----------------------------------|
||-(15b17)---15~~--------------------------|-----------------------------------|
||----------------x-x-(16r14)--12----------|-(14b16)---14~~----(16r14)---12~~--|
||------------------x-------------14~~--p0-|-----------------x-----------------|
||-----------------------------------------|-----------------------------------|
||-----------------------------------------|-----------------------------------|


|-----------------------------------------|----------------|
|--(15b17)---15~~-------------------------|--R--         --|
|------------------x-x-(16r14)--12--------|--E--         --|
|--------------------x-------------14~~---|--S--         --|
|-----------------------------------------|--T--         --|
|-----------------------------------------|----------------|


    * 3/4 bend                           * 3/4 bend                * 3/4 bend
|------------------------------------|-----------------------------------------|
|---*--------------------------x-----|---*-------------------------*-----------|
|--(16r14)-12------------------12~~--|--(16r14)-12-------------(14b16r14)~~----|
|-------------14~~-----12h14---------|-------------14~~-----12-----------------|
|------------------------------------|-----------------------------------------|
|------------------------------------|-----------------------------------------|


    * 3/4 bend
|-----------------------------------||
|---*-------------------------------||
|--(16r14)-12----------------12~~---||
|-------------14~~-----12h14--------||
|-----------------------------------||
|-----------------------------------||



================================================================================
Part 3: Guitars 1 & 2                                     [ Time 00:53 - 01:09 ]
================================================================================


---------
Guitar 1:
---------

                                      * 3/4 bend
||-------------------------------------------|
||-------------------------------------------|
||-------------------------------------------|
||------------------------------------*------|
||--12h14-14-14-14--14-12--14--14-(14b16r14)-|
||--0-----0--0--0---0--0---0---0---0---------|
    "Way down deep within my heart"

                                                                      * 3/4 bend
|-----------------------------------|------------------------------------------|
|-----------------------------------|------------------------------------------|
|-----------------------------------|------------------------------------------|
|----------------------9--9\ 7------|-----------------------------------*------|
|-12h14-14-14-14-------9--9\ 7--0-0-|-12h14-14-14-14--14-12--14--14-(14b16r14)-|
|-0-----0--0--0----0-0-7--7\ 5--0-0-|-0-----0--0--0---0--0---0---0---0---------|
                                      "Lies a soul that's torn apart"

                                                                      * 3/4 bend
|----------------------------------|------------------------------------------|
|----------------------------------|------------------------------------------|
|----------------------------------|------------------------------------------|
|---------------------5--5/ 7------|-----------------------------------*------|
|-12h14-14-14-14------5--5/ 7--0-0-|-12h14-14-14-14--14-12--14--14-(14b16r14)-|
|-0-----0--0--0---0-0-3--3/ 5--0-0-|-0-----0--0--0---0--0---0---0---0---------|
                                     "Tell me tell me what you're after"


|-----------------------------------|--------------------| |-----------| |
|-----------------------------------|--------------------| |-----------| |
|-----------------------------------|--------------------|2|-----------|4|
|----------------------9--9\ 7------|--------------------|/|-----------|/|
|--12h14-14-14-14------9--9\ 7--0-0-|--14----------------|4|--(14)-----|4|
|--0-----0--0--0---0-0-7--7\ 5--0-0-|--0-----------------| |--(0)------| |
                                       "I just wanna get there faster"


---------
Guitar 2:
---------


||----------------------------------|-------------------------------|
||----------------------------------|-------------------------------|
||----------------------------------|-------------------------------|
||----------------------------------|------------------9--9\ 7------|
||--5h7-7-7-7--7-5--7--7-(7b9r7)----|--5h7-7-7-7-------9--9\ 7--0-0-|
||--0---0-0-0--0-0--0--0--0---------|--0---0-0-0---0-0-7--7\ 5--0-0-|


|----------------------------------|-------------------------------|
|----------------------------------|-------------------------------|
|----------------------------------|-------------------------------|
|----------------------------------|------------------5--5/ 7------|
|--5h7-7-7-7--7-5--7--7-(7b9r7)----|--5h7-7-7-7-------5--5/ 7--0-0-|
|--0---0-0-0--0-0--0--0--0---------|--0---0-0-0---0-0-3--3/ 5--0-0-|


|----------------------------------|-------------------------------|
|----------------------------------|-------------------------------|
|----------------------------------|-------------------------------|
|----------------------------------|------------------9--9\ 7------|
|--5h7-7-7-7--7-5--7--7-(7b9r7)----|--5h7-7-7-7-------9--9\ 7--0-0-|
|--0---0-0-0--0-0--0--0--0---------|--0---0-0-0---0-0-7--7\ 5--0-0-|


|--------------------| |-----------| |
|--------------------| |-----------| |
|--------------------|2|-----------|4|
|--------------------|/|-----------|/|
|--14----------------|4|--(14)-----|4|
|--0-----------------| |--(0)------| |



================================================================================
Part 4: Guitars 1, 2 & 3                                  [ Time 01:09 - 01:35 ]
================================================================================


--------------
Guitars 1 & 2:
--------------


||------------0--------------0------| |
||------------0--------------0------| |
||------------1--------------1------|*|
||----------0-2------------0-2------|*| x 11
||--(5/7)-7-0-2--0-5  /7-7-0-2----0-| |
||--(3/5)-0-0-0--0-3  /5-0-0-0--0-0-| |


||------------0--------------0--0--||
||------------0--------------0--0--||
||------------1--------------1--1--||
||----------0-2------------0-2--2--||
||--(5/7)-7-0-2--0-5  /7-7-0-2--2--||
||--(3/5)-0-0-0--0-3  /5-0-0-0--0--||



---------
Guitar 3:
---------


Rest for 7 bars


|----------------------|------------------------------------------|
|----------------------|------------------------------------------|
|----------------------|--(14b16)--(16r14)----12~~----------------|
|------------------14--|----------------------------------14--12--|
|----------------------|------------------------------------------|
|----------------------|------------------------------------------|


|------------------------------------||
|------------------------------------||
|--12~~------------------------------||
|---------14~~---(14\12)~~-----------||
|------------------------------------||
|------------------------------------||



================================================================================
Part 5: Guitars 1 & 2                                     [ Time 01:35 - 01:52 ]
================================================================================


||---------------------|-------------------------------|
||--3-------3----------|--(3)--------------------------|
||--2----x--2----------|--(2)--------------------------|
||--0----x--0----------|--(0)--------------------------|
||--0----x--0----------|--(0)------5--------------5~~--|
||-------x-------------|--------------7\ 6--5--3-------|
                                   P.M..........


|---------------------|--------------------|---------------------|
|---------8-----------|--(8)---------------|--3-------3----------|
|---------7-----------|--(7)---------------|--2----x--2----------|
|---------6-----------|--(6)---------------|--0----x--0----------|
|---------7-----------|--(7)---------------|--0----x--0----------|
|--0------------------|--------------------|-------x-------------|


|-------------------------------|---------0-----------|--(0)--------------||
|--(3)--------------------------|---------0-----------|--(0)--------------||
|--(2)--------------------------|---------x-----------|-------------------||
|--(0)--------------------------|---------2-----------|--(2)--------------||
|--(0)------5--------------5~~--|---------2-----------|--(2)--------------||
|--------------7\ 6--5--3-------|--0------------------|--(0)--------------||



Guitar 2 replaces the final two bars with the following:



|---------------------|--------------------||
|---------------------|--------------------||
|---------------------|--------------------||
|---------------------|--------------------||
|---------14----------|--(14)--------------||
|--0------0-----------|--(0)---------------||



================================================================================
Interlude: Guitars 4 & 5 w/ Clean Tone                    [ Time 01:52 - 02:20 ]
================================================================================


Tempo = half-time


---------
Guitar 4:
---------


||--0----------0-----0----0---|--2--2-2-2--2-2-2-2-3p2-2-2-0--2-2-2-0-0-|
||--0----0-----0-----0----0-0-|--3--3-3-3--3-3-3-3-3---3-3-3--3-3-3-0-0-|
||--1--1----1--1--1-----0-0-0-|--2--2-2-2--2-2-2-2-2---2-2-2--2-2-2-0---|
||--2----------2--------------|--0--0-0-0--0-0-0-0-0---0-0-0--0-0-0-----|
||----------------------------|-----------------------------------------|
||----------------------------|-----------------------------------------|
    "Sprinkle all my kisses on your head"


|--0----0-----0-----0----0---|--2--2-2-2--2-2-2-2-3p2-2-2-0--2-2-2-0-0-|
|--0----0-----0-----0----0-0-|--3--3-3-3--3-3-3-3-3---3-3-3--3-3-3-1-1-|
|--1--1----1--1--1-----0-0-0-|--2--2-2-2--2-2-2-2-2---2-2-2--2-2-2-0---|
|--2-------------------------|--0--0-0-0--0-0-0-0-0---0-0-0--0-0-0-----|
|----------------------------|-----------------------------------------|
|----------------------------|-----------------------------------------|
   "Stars full of wishes fill our bed"


|------0---------------|------3-------------||
|--1---1---------------|--1---1-------------||
|--0---0----0----------|--0---0-------------||
|--2---2---------------|--2---2-------------||
|------3---------------|------3-------------||
|----------------------|--------------------||
  "She says          I'm dead"



---------
Guitar 5:
---------


||-----------------------------------------|---------------------|
||--12-----12~~----------------12----------|---------------------|
||------13------13~~------13~~-----13~~-12-|--11~~---------------|
||-------------------14~~------------------|---------------------|
||-----------------------------------------|---------------------|
||-----------------------------------------|---------------------|


|-----------------------------16------15-|--14-------------------|
|--12~~-------------15-- /17------17-----|-----------------------|
|-------13------13-----------------------|--------------------12h|
|----------14~~--------------------------|-----------------------|
|----------------------------------------|-----------------------|
|----------------------------------------|-----------------------|


|--------------------------|------------------------||
|--------------------------|------------------------||
| -11---12--------------12h| -11--------------------||
|-------------12-----------|--------14--------------||
|--------------------------|------------------------||
|--------------------------|------------------------||



Guitars 1, 2 and 3 come in right at the end of this section with the following:



---------
Guitar 1:
---------


|-----------------0---------||
|--R--        ----0---------||
|--E--        ----0---------||
|--S--        --------------||
|--T--        --8-----------||
|---------------8---8/ 12\ -||



---------
Guitar 2:
---------

                Pick scrapes
|---------------------------||
|--R--        --------------||
|--E--        --------------||
|--S--        --x\-x\-x\-x\-||
|--T--        --x\-x\-x\-x\-||
|---------------------------||



---------
Guitar 3:
---------

                        * 1 & 1/4 bend
|-----------------------*---||
|--R--            --(17b19)-||
|--E--            ----------||
|--S--            ----------||
|--T--            ----------||
|---------------------------||



================================================================================
Guitar Solo: Guitars 1, 2 & 3                             [ Time 02:20 - 02:48 ]
================================================================================


--------------
Guitars 1 & 2: Repeat Part 4 eight times, replacing the fourth bar as follows:
--------------


|------------0--------------------|
|------------0--------------------|
|------------1--------------------|
|----------0-2--------------------|
|--(5/7)-7-0-2--0-5  /7--9-9-- \--|
|--(3/5)-0-0-0--0-3  /5--7-7-- \--|



Then continue with the following


||---------------------------------|----------------------------| |
||---------------------------------|----------------------------| |
||---------------------------------|-------2-2------------------|*|
||---------------------------------|-------2-2------------------|*|
||--2p0--------2p0--------2p0------|-------0-0------------------| |
||------3bp0-------3bp0-------3pp0-|--3bp0----------------------| |



The bends on the low E string are 1/4 bends, accomplished by performing the
pull-off more aggressively than normal.



---------
Guitar 3:
---------

                                 * 1 & 1/4 bend to 1 & 1/2 bend
||-------------------------------*--|----------------(18r17)--15-|
||--(19)-----(19  r17)---- p15-(17b |  19   b 20)--x-------------|
||----------------------------------|----------------------------|
||----------------------------------|----------------------------|
||----------------------------------|----------------------------|
||----------------------------------|----------------------------|


    1/4 bend       1/2 bend
|--(20  r19b20 r19b20r19)-17-------|----------0--------------------|
|--(20  r19b20 r19b20r19)-17--(20r |    19)---0--------------------|
|-----------------------------(20r |    19)-----12 h 14--12-(14 b16|
|----------------------------------|-------------------------------|
|----------------------------------|-------------------------------|
|----------------------------------|-------------------------------|


            3/4 bend    1 & 1/4 bend
|---------------------------------|--------------------------------------------|
|----------(15  b17)---(17r15)p12-|--------------------------------------------|
|16 r14)--0-x---------0-----------|(14b16r14  b16)--(<16> r14)   h12----12-----|
|---------0-----------------------|------------------(16) r14)-------14--------|
|---------------------------------|----------------------------------------14~-|
|---------------------------------|--------------------------------------------|


|------------------------------------(14b16r14|b16)--12--(17   b   19)------|
|---------------------------------------------|----------(17   b   19)------|
|-------(14b16r14)-12h (14b16r14)--12---------|-----------------------------|
|-------(12)----------------------------------|-----------------------------|
|-(14)----------------------------------------|-----------------------8\  --|
|---------------------------------------------|-----------------------8\  --|


|-------------------|---------(22b24    r  22)---|-------------------|
|--R--            --|--------------------------0-|--R--            --|
|--E--            --|--------------------------0-|--E--            --|
|--S--            --|----------------------------|--S--            --|
|--T--            --|----------------------------|--T--            --|
|-------------------|----------------------------|-------------------|


|----------------------------||--------------------|----------------------||
|--R--            -----------||--------------------|----------------------||
|--E--            -----------||--------------------|----------------------||
|--S--            -----------||--------------------|----------------------||
|--T--            -----------||--------------------|----------------------||
|-------------------(5 / 12)-||---(12)~~-----------|--(12)~~------- \-----||



================================================================================
Break: Guitars 4 & 5                                      [ Time 02:48 - 03:42 ]
================================================================================


Rest for 8 bars


---------
Guitar 1:
---------


||--2----------------|--(2)--------------- /|--4---------------5h |
||--3----------------|--(3)--------------- /|--5---------------5--|
||--2----------------|--(2)--------------- /|--4---------------4--|
||--0----------------|--(0)-----------------|---------------------|
||-------------------|----------------------|---------------------|
||-------------------|----------------------|---------------------|


|  4---------------- \-|--2----------------|--(2)-------------- /|
|-(5)--------------- \-|--3----------------|--(3)-------------- /|
|-(4)--------------- \-|--2----------------|--(2)-------------- /|
|----------------------|-------------------|---------------------|
|----------------------|-------------------|---------------------|
|----------------------|-------------------|---------------------|


|--4---------------5h |  4----------------||
|--5---------------5--|-(5)---------------||
|--4---------------4--|-(4)---------------||
|---------------------|-------------------||
|---------------------|-------------------||
|---------------------|-------------------||



---------
Guitar 5:
---------


Rest for 16 bars


||-----------------------|-------------------|------------------0----|
||------------------0----|--(0)--------------|-----------------------|
||---------------0-------|--(0)--------------|---------------0-------|
||----------4------------|--(4)--------------|----------4------------|
||------2----------------|--(2)--------------|------2----------------|
||--0--------------------|--(0)--------------|--0--------------------|


|--(0)--------------|-----------------------|-------------------|
|-------------------|------------------0----|--(0)--------------|
|--(0)--------------|---------------0-------|--(0)--------------|
|--(4)--------------|----------4------------|--(4)--------------|
|--(2)--------------|------2----------------|--(2)--------------|
|--(0)--------------|--0--------------------|--(0)--------------|


|-------------------|-------------------||
|-------------------|-------------------||
|-------------------|-------------------||
|-------------------|-------------------||
|-------------------|-------------------||
|--0----------------|--(0)--------------||



"All this pain smothers me
Like a bomb that you can't see
Tell me tell me what you're after
I just wanna get there faster"



================================================================================
Outro: Guitars 1 & 2                                      [ Time 03:42 - 04:19 ]
================================================================================


||----------------------------|----------------------------|
||--8----8----8----8----8--8--|--8----8----8----8----8--8--|
||--7----7----7----7----7--7--|--7----7----7----7----7--7--|
||--6----6----6----6----6--6--|--6----6----6----6----6--6--|
||--7--7-7--7-7--7-7--7-7--7--|--7--7-7--7-7--7-7--7-7--7--|
||-----0----0----0----0-------|-----0----0----0----0-------|


|----------------------------|---------------------------------|
|--8----8----8----8----8--8--|--8--8-8----8---------(0)--------|
|--7----7----7----7----7--7--|--7--7-7----7--------------------|
|--6----6----6----6----6--6--|--6--6-6----6--------------------|
|--7--7-7--7-7--7-7--7-7--7--|--7--7-7--7-7----x\ -------------|
|-----0----0----0----0-------|----------0----0-x\ --(0/12  p0)-|


||------------0--------------0------| |
||------------0--------------0------| |
||------------1--------------1------|*|
||----------0-2------------0-2------|*| x 11
||--(5/7)-7-0-2--0-5  /7-7-0-2----0-| |
||--(3/5)-0-0-0--0-3  /5-0-0-0--0-0-| |


|------------0--------------0----|
|------------0--------------0----|
|------------1--------------1----|
|----------0-2------------0-2----|
|--(5/7)-7-0-2--0-5  /7-7-0-2----|
|--(3/5)-0-0-0--0-3  /5-0-0-0----|


            Rake
|--(0)------x------------||
|--(0)-------x----R-    -||
|--(1)--------x---E-    -||
|--(2)---------x--S-    -||
|--(2)------------T-    -||
|--(0)-------------------||



Guitar 2 replaces the fourth bar with the following:



|------------------------------|
|--8----8----8-----------------|
|--7----7----7-----------------|
|--6----6----6------11-- \-----|
|--7--7-7--7-7--5/ -11-- \-----|
|-----0----0----3/ -9--- \--0--|



Vocals enter on the eighth bar:


"I don't live, I inhale"
"I don't give, I unveil"
"I don't live, I inhale"
"I don't live."



================================================================================
End
================================================================================


Tab summary:        Part 1
                    Part 2
                    Part 3
                    Part 4
                    Part 5
                    Interlude
                    Guitar Solo
                    Break
                    Outro

                    END





Comments


Popular Smashing Pumpkins tabs & chords
Bullet Wth Butterfly Wings Bass Tabs
Shame 1 Bass Tabs
The Beginning Is The End Is The Beginning 1 Chords
Believe Tabs
My Love Is Winter Tabs
Pinwheels Intro Tabs
Song For A Son 1 Tabs
The End Is The Beginning Is The End 1 Tabs
Home Ukulele
Neverlost Ukulele


Song lyrics



↑ Back to top | Tablatures and chords are parodies/interpretations of the original songs. You may use it for private study, scholarship, research or language learning purposes only
© 2014 AZChords.com Contact us | Privacy policy | DMCA | Add/correct tabs | Request tabs | Top 50 tabs