>
 >
Siva 2

Siva 2 Bass Tabs

Smashing Pumpkins - Siva 2 chords, tabs, tablatures, lyrics

Guitar lessons | Add/correct | Request | Top 50 tabs Artists:  A B C D E F G H I J K L M N O P Q R S T U V W X Y Z 0-9

Siva 2 Bass Tabs – Smashing Pumpkins

CD, Sheet music, Poster

Do you like Siva 2? Share with your friends now
Bass TabsBass Tabs v2ChordsTabsTabs v2Tabs v3Tabs v4Tabs v5Ukulele
================================================================================
                       S M A S H I N G   P U M P K I N S

                                       -

                                    S I V A
================================================================================


                                     GISH
                    (c) Virgin Records (1991) [2011 Reissue]


                                Standard Tuning
                                    E A D G

                                 Tempo = 105 BPM
                              Time Signature = 4/4



                          -----------------------------

                                 PADDY MCMULLAN

                                  Version 1.0
                                 8th April 2012
                             -----------------------

                             Tablature Symbols Used:



 (/)       -  Legato Slide (Blank space indicates length of slide)
 \         -  Slide Down to/Down From (Blank space indicates length of slide)
 /         -  Slide Up To/Up From (Blank space indicates length of slide)
 ( )       -  Ghost Note/Tied Note/Implied Note
 5b7       -  Bend Note
 7r5       -  Release Bent Note
 5h7       -  Hammer-on
 7p5       -  Pull-off
 1,2,3     -  Bar Numbers (Repeats are taken into account)
 |__[1]    -  Alternative Endings
 P.M....   -  Palm Mute




================================================================================
Part 1:                                                   [ Time 00:00 - 00:36 ]
================================================================================


Rest for 3 bars


||-------------------------||----------------------------------|
||-------------------------||----------------------------------|
||-------------------------||--5h7-7-7------5--7--7-(7b8r7)----|
||-----------0-7--7-5--5-5-||----------0--0--------------------|


|----------------------------------|----------------------------------|
|----------------------------------|----------------------------------|
|--5h7-7-7------5--7--7-(7b8r7)----|--5h7-7-7------5--7--7-(7b8r7)----|
|----------0--0--------------------|----------0--0--------------------|


|-------------------------------|----------------------------------|
|-------------------------------|----------------------------------|
|--5h7-7-7----------------------|--5h7-7-7------5--7--7-(7b8r7)----|
|----------0--0-0-0-7--7-5--5-5-|--0-------0--0--------------------|
                                   "I spin off and lose my head"

|------------------------------|----------------------------------|
|------------------------------|----------------------------------|
|--5h7-7-7------5--7--7-7--7-7-|--5h7-7-7------5--7--7-(7b8r7)----|
|----------0--0----------------|----------0--0--------------------|
                                  "Throwing straight spark instead"

|--------------------------------|----------------------------------|
|--------------------------------|----------------------------------|
|--5h7-7-7-----------------------|--5h7-7-7------5--7--7-(7b8r7)----|
|----------0--0-0-0-3--3 /5--5-5-|----------0--0--------------------|
                                    "Gather strength down in my hands"


|------------------------------|----------------------------------|
|------------------------------|----------------------------------|
|--5h7-7-7------5--7--7-7--7-7-|--5h7-7-7------5--7--7-(7b8r7)----|
|----------0--0----------------|----------0--0--------------------|
                                  "And dig it in the world I peel"


|--------------------------------||
|--------------------------------||
|--5h7-7-7-----------------------||
|----------0--0-0-0-3--3 /5--5-0-||



================================================================================
Part 2:                                                   [ Time 00:36 - 00:53 ]
================================================================================


||--------------------------------|--------------------------------|
||--------------------------------|--------------------------------|
||---------7~~--------------------|---------7~~--------------------|
||--0--0-0-----0-0-0-3--3 /5--5-5-|--0--0-0-----0-0-0-7--7 \5--5-5-|


|--------------------------------|----------------------------|
|--------------------------------|----------------------------|
|---------7~~--------------------|--7--7-5--5-----------------|
|--0--0-0-----0-0-0-3--3 /5--0-0-|------------7--7-6--6-5--3--|


|--------------------------------|--------------------------------|
|--------------------------------|--------------------------------|
|---------7~~--------------------|---------7~~--------------------|
|--0--0-0-----0-0-0-3--3 /5--5-5-|--0--0-0-----0-0-0-7--7 \5--5-5-|


|--------------------------------|----------------------------||
|--------------------------------|----------------------------||
|---------7~~--------------------|-------7--7------7--7----7--||
|--0--0-0-----0-0-0-3--3 /5--5-5-|--0--0------0--0------0-----||



================================================================================
Part 3:                                                   [ Time 00:53 - 01:09 ]
================================================================================


||----------------------------------|-------------------------------|
||----------------------------------|-------------------------------|
||--5h7-7-7------5--7--7-(7b8r7)----|--5h7-7-7----------------------|
||----------0--0--------------------|----------0--0-0-0-7--7-5--5-5-|
    "Way down deep within my heart"


|----------------------------------|--------------------------------|
|----------------------------------|--------------------------------|
|--5h7-7-7------5--7--7-(7b8r7)----|--5h7-7-7-----------------------|
|----------0--0--------------------|----------0--0-0-0-3--3 \5--5-5-|
   "Lies a soul that's torn apart"


|----------------------------------|-----------------------------|
|----------------------------------|-----------------------------|
|--5h7-7-7------5--7--7-(7b8r7)----|--5h7-7-7--------------------|
|----------0--0--------------------|----------0--0-0-0-7--7-5----|
   "Tell me tell me what you're after"


|-------------------| |-----------| |
|-------------------|2|-----------|4|
|-------------------|/|-----------|/|
|--0----------------|4|--(0)------|4|
   "I just wanna get there faster"



================================================================================
Part 4:                                                   [ Time 01:09 - 01:35 ]
================================================================================


||---------------------------------| |
||---------------------------------|*|
||---------------------------------|*| x 12
||--(3/5)-5-5-0--0-3  /5--5-0--0-0-| |

    "I don't live
     I inhale
     I don't give
     I unveil
     Don't wanna live
     With your misery
     I don't live
     I inhale"



================================================================================
Part 5:                                                   [ Time 01:35 - 01:52 ]
================================================================================


||-----R- --------------|-----------------------------|---------------------|
||-----E- --------------|-----------------------------|---------------------|
||--5--S- --5-----------|--(5)------5-------------5---|---------7-----------|
||-----T- --------------|-------------7--6--5--3------|--0------------------|
                                    ............

|---------------------|-----R- --------------|-----------------------------|
|---------------------|-----E- --------------|-----------------------------|
|--(7)------7---------|--5--S- --5-----------|--(5)------5-------------5---|
|---------------------|-----T- --------------|-------------7--6--5--3------|
                                                         ............

|-------------------|-------------------||
|-------------------|-------------------||
|-------------------|-------------------||
|--0----------------|--(0)--------------||



================================================================================
Interlude:                                                [ Time 01:52 - 02:20 ]
================================================================================


Tempo = half-time


||-------9-------------------|---------------------7----|
||-----9----9-----------9----|-----7------4--5--7-----7-|
||--7----------7-----7-----7-|--5----5------------------|
||----------------7----------|--------------------------|
  "Sprinkle all my kisses on your head"


|-------9-------------------|---------------------7----|-------5---------------|
|-----9----9-----------9----|-----7------4--5--7-----7-|-----5-----------------|
|--7----------7-----7-----7-|--5----5------------------|--3---------3----------|
|----------------7----------|--------------------------|-----------------------|
 "Stars full of wishes fill our bed"                     "She said"

|---------------------||
|------5--------------||
|--3------------------||
|---------------------||
  "I'm dead"



================================================================================
Guitar Solo:                                              [ Time 02:20 - 02:48 ]
================================================================================


Repeat Part 4 eight times, replacing the fourth bar as follows:


|---------------------------------|
|---------------------------------|
|---------------------------------|
|--(3/5)-5-5-0--0-3 /5--5 /7-- \--|



Then continue with the following


||------------------------------|------------------------------|
||------------------------------|------------------------------|
||--2p0-------2p0-------2p0-----|------------------------------|
||------3p0-------3p0-------3p0-|--3p0-x-5------------------ \-|


|------------------------------|------------------------------||
|------------------------------|------------------------------||
|--2p0-------2p0-------2p0-----|------------------------------||
|------3p0-------3p0-------3p0-|--3p0-x-5---------------------||



================================================================================
Break:                                                    [ Time 02:48 - 03:42 ]
================================================================================


||------------------------| |
||------------------------|*|
||--7---7---7----7--7--0--|*| x 22
||------------------------| |


|-------------------|-------------------||
|-------------------|-------------------||
|--7----------------|--(7)--------------||
|-------------------|-------------------||


"All this pain smothers me
Like a bomb that you can't see
Tell me tell me what you're after
I just wanna get there faster"



================================================================================
Outro:                                                    [ Time 03:42 - 04:19 ]
================================================================================


||----------------------------------| |
||----------------------------------|*|
||----7---7---7---7---7---7---7---7-|*| x 4
||--0---0---0---0---0---0---0---0---| |


||--------------------------------| |
||--------------------------------|*|
||--------------------------------|*| x 11
||--(3/5)-5-5-0--0-3 /5--5-0--0-0-| |


|------------------------------|--------R-   -||
|------------------------------|--------E-   -||
|------------------------------|--------S-   -||
|--(3/5)-5-5-0--0-3 /5--5-0----|--(0)---T-   -||


Vocals enter on the eighth bar:


"I don't live, I inhale"
"I don't give, I unveil"
"I don't live, I inhale"
"I don't live."



================================================================================
End
================================================================================


Tab summary:        Part 1
                    Part 2
                    Part 3
                    Part 4
                    Part 5
                    Interlude
                    Guitar Solo
                    Break
                    Outro

                    END





Comments


Popular Smashing Pumpkins tabs & chords
Bullet With Butterfly Wings Chords
If All Goes Wrong Chords
Chewing Gum Tabs
Landslide 2 Tabs
Mellon Collie And The Infinite Sadness 1 Tabs
Rocket 1 Tabs
Take Me Down Tabs
The End Is The Beginning Is The End 1 Tabs
Medellia Of The Grey Skies Ukulele
Soot And Stars Ukulele


Song lyrics



↑ Back to top | Tablatures and chords are parodies/interpretations of the original songs. You may use it for private study, scholarship, research or language learning purposes only
© 2014 AZChords.com Contact us | Privacy policy | DMCA | Add/correct tabs | Request tabs | Top 50 tabs