>
 >
Siva 1

Siva 1 Guitar Tabs

Smashing Pumpkins - Siva 1 chords, tabs, tablatures, lyrics

Guitar lessons | Add/correct | Request | Top 50 tabs Artists:  A B C D E F G H I J K L M N O P Q R S T U V W X Y Z 0-9

Siva 1 Guitar Tabs – Smashing Pumpkins

CD, Sheet music, Poster

Do you like Siva 1? Share with your friends now
Bass TabsBass Tabs v2ChordsTabsTabs v2Tabs v3Tabs v4Tabs v5Ukulele
Siva -- by Smashing Pumpkins (billy corgan)
----

This is as accurate as I probably get.  I learned most of this a while
back, but improved a lot after seeing them (again) in Dayton.  Enjoy.

Intro:

 Guitar 1 -- left channel (billy)
|----------------------------------------------------------------------
|----------------------------------------------------------------------
|----------------------------------------------------------------------
|--12h14-14-14-14--14-12--14--14-14b15b14---12h14-14-14-14--14-12--14--
|--12h14-14-14-14--14-12--14--14-14b15b14---12h14-14-14-14--14-12--14--
|--0-----0--0--0---0--0---0---0--0----------0-----0--0--0---0--0---0---

|Guitar 2 -- right channel (james)
|----------------------------------------------------------------------
|----------------------------------------------------------------------
|-------------------------------------------7/-9--9--9--9---9--7---9---
|-------------------------------------------7/-9--9--9--9---9--7---9---
|-------------------------------------------5/-7--7--7--7---7--5---7---
|-------------------------------------------0--0--0--0--0---0--0---0---


 billy
|------------------------------------------------------------------------0--0--
|------------------------------------------------------------------------0--0--
|------------------------------------------------------------------------8--6--
|--14-14b15b14---12h14-14-14-14--14-12--14--14-14b15b14---12h14-14-14-14-9--7--
|--14-14b15b14---12h14-14-14-14--14-12--14--14-14b15b14---12h14-14-14-14-9--7--
|--0--0----------0-----0--0--0---0--0---0---0--0----------0-----0--0--0--7--5--
|
|james                                                                full band
|------------------------------------------------------------------------------
|------------------------------------------------------------------------------
|-----9----------7--9--9--9--9---9--7---9------9----------9--9--9--9--9--------
|-----9----------7--9--9--9--9---9--7---9------9----------9--9--9--9--9--9--7--
|-----7----------5--7--7--7--7---7--5---7------7----------7--7--7--7--7--9--7--
|-----0----------0--0--0--0--0---0--0---0------0----------0--0--0--0--0--7--5--


Main riff:

 billy
|------------------------------------------------------------------------------
|------------------------------------------------------------------------------
|------------------------------------------------------------------------------
|-12h14-14-14-14--14-12--14-14-14b15b14--12h14-14-14-14--14-12--14-14-14b15b14-
|-12h14-14-14-14--14-12--14-14-14b15b14--12h14-14-14-14--14-12--14-14-14b15b14-
|-0-----0--0--0---0--0---0--0--0---------0-----0--0--0---0--0---0--0--0--------
|
|james
|------------------------------------------------------------------------------
|------------------------------------------------------------------------------
|-7--9--9--9--9---9--7---9--9--9---------7--9--9--9--9---9--7---9--9--9--------
|-7--9--9--9--9---9--7---9--9--9---------7--9--9--9--9---9--7---9--9--9--------
|-5--7--7--7--7---7--5---7--7--7---------5--7--7--7--7---7--5---7--7--7--------
|-0--0--0--0--0---0--0---0--0--0---------0--0--0--0--0---0--0---0--0--0--------
|
|Bass (d'arcy)
|------------------------------------------------------------------------------
|------------------------------------------------------------------------------
|-5-h7--7--7---------5---7--7--7-b8-b7---5-h7--7--7---------5---7--7--7-b8-b7--
|-------------0---0----------------------------------0---0---------------------


 billy
|--------------------------------------------------------------------------
|--------------------------------------------------------------------------
|--------------------------------------------------------------------------
|-12h14-14-14-14--14-12--14-14-14b15b14--12h14-14-14-14--14-14----9----7---
|-12h14-14-14-14--14-12--14-14-14b15b14--12h14-14-14-14--14-14----9----7---
|-0-----0--0--0---0--0---0--0--0---------0-----0--0--0---0--0---0-7--0-5---
|
|james
|--------------------------------------------------------------------------
|--------------------------------------------------------------------------
|-7--9--9--9--9---9--7---9--9--9---------7--9--9--9--9---9--9--------------
|-7--9--9--9--9---9--7---9--9--9---------7--9--9--9--9---9--9-----9----7---
|-5--7--7--7--7---7--5---7--7--7---------5--7--7--7--7---7--7-----9----7---
|-0--0--0--0--0---0--0---0--0--0---------0--0--0--0--0---0--0---0-7--0-5---
|
|d'arcy
|--------------------------------------------------------------------------
|--------------------------------------------------------------------------
|-5-h7--7--7---------5---7--7--7-b8-b7---5-h7--7--7------------------------
|-------------0---0----------------------------------0---0--0---0-7--0-5---


Verse 1:
 i      spin off and lose my   head

 billy
|------------------------------------------------------------------------------
|------------------------------------------------------------------------------
|------------------------------------------------------------------------------
|-12h14-14-14-14--14-12--14-14-14b15b14--12h14-14-14-14--14-12--14-14-14b15b14-
|-12h14-14-14-14--14-12--14-14-14b15b14--12h14-14-14-14--14-12--14-14-14b15b14-
|-0-----0--0--0---0--0---0--0--0---------0-----0--0--0---0--0---0--0--0--------
|
|james
|------------------------------------------------------------------------------
|------------------------------------------------------------------------------
|-7--9--9--9--9---9--7---9--9--9---------7--9--9--9--9---9--7---9--9--9--------
|-7--9--9--9--9---9--7---9--9--9---------7--9--9--9--9---9--7---9--9--9--------
|-5--7--7--7--7---7--5---7--7--7---------5--7--7--7--7---7--5---7--7--7--------
|-0--0--0--0--0---0--0---0--0--0---------0--0--0--0--0---0--0---0--0--0--------
|
|d'arcy
|------------------------------------------------------------------------------
|------------------------------------------------------------------------------
|-5-h7--7--7---------5---7--7--7-b8-b7---5-h7--7--7---------5---7--7--7-b8-b7--
|-------------0---0----------------------------------0---0---------------------


  throwin straight a spark  instead 

 billy
|--------------------------------------------------------------------------
|--------------------------------------------------------------------------
|--------------------------------------------------------------------------
|-12h14-14-14-14--14-12--14-14-14b15b14--12h14-14-14-14--14-14----5----7---
|-12h14-14-14-14--14-12--14-14-14b15b14--12h14-14-14-14--14-14----5----7---
|-0-----0--0--0---0--0---0--0--0---------0-----0--0--0---0--0---0-3--0-5---
|
|james
|--------------------------------------------------------------------------
|--------------------------------------------------------------------------
|-7--9--9--9--9---9--7---9--9--9---------7--9--9--9--9---9--9--------------
|-7--9--9--9--9---9--7---9--9--9---------7--9--9--9--9---9--9-----5----7---
|-5--7--7--7--7---7--5---7--7--7---------5--7--7--7--7---7--7-----5----7---
|-0--0--0--0--0---0--0---0--0--0---------0--0--0--0--0---0--0---0-3--0-5---
|
|d'arcy
|--------------------------------------------------------------------------
|--------------------------------------------------------------------------
|-5-h7--7--7---------5---7--7--7-b8-b7---5-h7--7--7------------------------
|-------------0---0----------------------------------0---0--0---0-3--0-5---


  yellow   streak down in my   hair

 billy
|------------------------------------------------------------------------------
|------------------------------------------------------------------------------
|------------------------------------------------------------------------------
|-12h14-14-14-14--14-12--14-14-14b15b14--12h14-14-14-14--14-12--14-14-14b15b14-
|-12h14-14-14-14--14-12--14-14-14b15b14--12h14-14-14-14--14-12--14-14-14b15b14-
|-0-----0--0--0---0--0---0--0--0---------0-----0--0--0---0--0---0--0--0--------
|
|james
|------------------------------------------------------------------------------
|------------------------------------------------------------------------------
|-7--9--9--9--9---9--7---9--9--9---------7--9--9--9--9---9--7---9--9--9--------
|-7--9--9--9--9---9--7---9--9--9---------7--9--9--9--9---9--7---9--9--9--------
|-5--7--7--7--7---7--5---7--7--7---------5--7--7--7--7---7--5---7--7--7--------
|-0--0--0--0--0---0--0---0--0--0---------0--0--0--0--0---0--0---0--0--0--------
|
|d'arcy
|------------------------------------------------------------------------------
|------------------------------------------------------------------------------
|-5-h7--7--7---------5---7--7--7-b8-b7---5-h7--7--7---------5---7--7--7-b8-b7--
|-------------0---0----------------------------------0---0---------------------


  dig   it    in  the world I  feel
 billy
|--------------------------------------------------------------------------
|--------------------------------------------------------------------------
|--------------------------------------------------------------------------
|-12h14-14-14-14--14-12--14-14-14b15b14--12h14-14-14-14--14-14----5----7---
|-12h14-14-14-14--14-12--14-14-14b15b14--12h14-14-14-14--14-14----5----7---
|-0-----0--0--0---0--0---0--0--0---------0-----0--0--0---0--0---0-3--0-5---
|
|james
|--------------------------------------------------------------------------
|--------------------------------------------------------------------------
|-7--9--9--9--9---9--7---9--9--9---------7--9--9--9--9---9--9--------------
|-7--9--9--9--9---9--7---9--9--9---------7--9--9--9--9---9--9-----5----7---
|-5--7--7--7--7---7--5---7--7--7---------5--7--7--7--7---7--7-----5----7---
|-0--0--0--0--0---0--0---0--0--0---------0--0--0--0--0---0--0---0-3--0-5---
|
|d'arcy
|--------------------------------------------------------------------------
|--------------------------------------------------------------------------
|-5-h7--7--7---------5---7--7--7-b8-b7---5-h7--7--7------------------------
|-------------0---0----------------------------------0---0--0---0-3--0-5---


Verse bridge:

 billy
|--11b12--10--------------------------------------11b12--10--------------
|-------------12p10-------11b12--10--12p11p10----------------12p10-------
|-------------------12p9----------------------12-------------------12p9--
|------------------------------------------------------------------------
|------------------------------------------------------------------------
|------------------------------------------------------------------------
|
|james
|---------3----------------------3-----------------------3---------------
|---------3----------------------3-----------------------3---------------
|---------0----------------------0-----------------------0---------------
|---------1------5-----7---------1-------9----7----------1------5-----7--
|---------2------5-----7---------2-------9----7----------2------5-----7--
|---0----------0-3---0-5---0----------0--7-0--5----0----------0-3---0-5--
|
|d'arcy
|------------------------------------------------------------------------
|------------------------------------------------------------------------
|---------7~---------------------7~----------------------7~--------------
|--0-----------0-3---0-5---0----------0--7-0--5----0----------0-3---0-5--


 billy
|------------------------------------------------------------------------------
|----------------------10(b11)b10------------7---10(b11)b10----------10b11b10--
|--------------------------------12-9--7h9------------------12-9---------------
|-----------------------------------------------------------------12-----------
|------------------------------------------------------------------------------
|------------------------------------------------------------------------------
|
|james
|--3-x-3-x-3-x-3-x-3-3--------------3--------------------------3---------------
|--3-x-3-x-3-x-3-x-3-3--------------3--------------------------3---------------
|--0-x-0-x-0-x-0-x-0-0--------------0--------------------------0---------------
|--1-x-1-x-1-x-1-x-1-1--------------1----5---7-----------------1-----9----7----
|--2-x-2-x-2-x-2-x-2-2--------------2----5---7-----------------2-----9----7----
|--0-x-0-x-0-x-0-x-0-0---0-------------0-3-0-5----0----------------0-7--0-5----
|
|d'arcy
|------------------------------------------------------------------------------
|------------------------------------------------------------------------------
|--7---5----------------------------7~-------------------------7~--------------
|----------7---6---5-3---0-------------0-3-0-5----0----------------0-7--0-5----

 billy
|------------------------------------------------
|--10(b11)b10-----------7------------------------
|------------12-9--7h9---------------------------
|------------------------------------------------
|------------------------------------------------
|------------------------------------------------
|
|james
|---------------3-----------3-x-3-x-3-x-3-x-3-3--
|---------------3-----------3-x-3-x-3-x-3-x-3-3--
|---------------0-----------0-x-0-x-0-x-0-x-0-0--
|---------------1---5---7---1-x-1-x-1-x-1-x-1-1--
|---------------2---5---7---2-x-2-x-2-x-2-x-2-2--
|---0-------------0-3-0-5---0-x-0-x-0-x-0-x-0-0--
|
|d'arcy
|------------------------------------------------
|------------------------------------------------
|---------------7~--------------7-------7-----7--
|---0-------------0-3-0-5---0-------0-------0----


Verse 2:
  way  down deep and in  my    heart  

 billy
|--------------------------------------------------------------------------
|--------------------------------------------------------------------------
|--------------------------------------------------------------------------
|-12h14-14-14-14--14-12--14-14-14b15b14--12h14-14-14-14--14-14----9----7---
|-12h14-14-14-14--14-12--14-14-14b15b14--12h14-14-14-14--14-14----9----7---
|-0-----0--0--0---0--0---0--0--0---------0-----0--0--0---0--0---0-7--0-5---
|
|james
|--------------------------------------------------------------------------
|--------------------------------------------------------------------------
|-7--9--9--9--9---9--7---9--9--9---------7--9--9--9--9---9--9--------------
|-7--9--9--9--9---9--7---9--9--9---------7--9--9--9--9---9--9-----9----7---
|-5--7--7--7--7---7--5---7--7--7---------5--7--7--7--7---7--7-----9----7---
|-0--0--0--0--0---0--0---0--0--0---------0--0--0--0--0---0--0---0-7--0-5---
|
|d'arcy
|--------------------------------------------------------------------------
|--------------------------------------------------------------------------
|-5-h7--7--7---------5---7--7--7-b8-b7---5-h7--7--7------------------------
|-------------0---0----------------------------------0---0--0---0-7--0-5---


  lies a soul that's torn   apart 

 billy
|--------------------------------------------------------------------------
|--------------------------------------------------------------------------
|--------------------------------------------------------------------------
|-12h14-14-14-14--14-12--14-14-14b15b14--12h14-14-14-14--14-14----5----7---
|-12h14-14-14-14--14-12--14-14-14b15b14--12h14-14-14-14--14-14----5----7---
|-0-----0--0--0---0--0---0--0--0---------0-----0--0--0---0--0---0-3--0-5---
|
|james
|--------------------------------------------------------------------------
|--------------------------------------------------------------------------
|-7--9--9--9--9---9--7---9--9--9---------7--9--9--9--9---9--9--------------
|-7--9--9--9--9---9--7---9--9--9---------7--9--9--9--9---9--9-----5----7---
|-5--7--7--7--7---7--5---7--7--7---------5--7--7--7--7---7--7-----5----7---
|-0--0--0--0--0---0--0---0--0--0---------0--0--0--0--0---0--0---0-3--0-5---
|
|d'arcy
|--------------------------------------------------------------------------
|--------------------------------------------------------------------------
|-5-h7--7--7---------5---7--7--7-b8-b7---5-h7--7--7------------------------
|-------------0---0----------------------------------0---0--0---0-3--0-5---

  tell me tell me what you're after

 billy
|--------------------------------------------------------------------------
|--------------------------------------------------------------------------
|--------------------------------------------------------------------------
|-12h14-14-14-14--14-12--14-14-14b15b14--12h14-14-14-14--14-14----9----7---
|-12h14-14-14-14--14-12--14-14-14b15b14--12h14-14-14-14--14-14----9----7---
|-0-----0--0--0---0--0---0--0--0---------0-----0--0--0---0--0---0-7--0-5---
|
|james
|--------------------------------------------------------------------------
|--------------------------------------------------------------------------
|-7--9--9--9--9---9--7---9--9--9---------7--9--9--9--9---9--9--------------
|-7--9--9--9--9---9--7---9--9--9---------7--9--9--9--9---9--9-----9----7---
|-5--7--7--7--7---7--5---7--7--7---------5--7--7--7--7---7--7-----9----7---
|-0--0--0--0--0---0--0---0--0--0---------0--0--0--0--0---0--0---0-7--0-5---
|
|d'arcy
|--------------------------------------------------------------------------
|--------------------------------------------------------------------------
|-5-h7--7--7---------5---7--7--7-b8-b7---5-h7--7--7------------------------
|-------------0---0----------------------------------0---0--0---0-7--0-5---


   i just want to get there faster (drum fill)

|-----
|-----
|-----
|-----
|-----
|--0--


Chorus:

 billy + james
|-----------0--------------0-----------------0--------------0--------
|-----------0--------------0-----------------0--------------0--------
|-----------1------------x-1-----------------1------------x-1--------
|--5/7------2---x-5-x-7--x-2---x-x--5/7------2---x-5-x-7--x-2---x-x--
|--5/7------2---x-5-x-7--x-2---x-x--5/7------2---x-5-x-7--x-2---x-x--
|--3/5--x-x-0---x-3-x-5--x-0---x-x--3/5--x-x-0---x-3-x-5--x-0---x-x--
|
|d'arcy
|--------------------------------------------------------------------
|--------------------------------------------------------------------
|--------------------------------------------------------------------
|--3h5--5-5-0---0-3---5--5-0--------3h5--5-5-0---0-3---5--5-0--------

repeat once more before vocals (each line is once through chorus figure)

i don't live, i invade
i don't give, i unveil

don't wanna live with your misery

lead guitar (james)
|-------------------------------------
|-----12-10---------------------------
|--9--------12---9---------12-9-9p7---
|---------------------12--------------
|-------------------------------------
|-------------------------------------

i don't live, i invade


Interlude: 
 
 billy + james  palm mute--|                          palm mute--|
|--------------------------------3----------------------------------------
|------x-------------------------3-----------x----------------------------
|--2---x--2----------------------0-------2---x--2----------------------1--
|--0---x--0----------------------1-------0---x--0----------------------2--
|--0---x--0-----5-3-------5~-----2-------0---x--0-----5-3-------5~-----2--
|-------------------5-4-3-----0--0------------------------5-4-3-----0--0--
|
|d'arcy
|-------------------------------------------------------------------------
|-------------------------------------------------------------------------
|--5------5-----5-3-------5------7-------5------5-----5-3-------5---------
|-------------------5-4-3-----0---------------------------5-4-3-----0--0--


Clean bridge:
  sprinkle all my kisses on your head

 billy
|--0-------0------0------0--0----0--2--3-3--3p2-2p0---2-2-2---
|--0-------0------0------0--0----0--3--3-3--3---3-----3-3-3---
|--1-------1------1------1--1----1--2--2-2--2---2-----2-2-2---
|--2-------2------2------2--2----2--0-------0---0---0---------
|--2-------2------2------2--2----2----------------------------
|-------------------------------------------------------------
|
|james
|-------------------------------------------------------------
|-------------------------------------------------------------
|--16--13--16--13-----13-16-13--12-11-------------------------
|-----------------14------------------------------------------
|-------------------------------------------------------------
|-------------------------------------------------------------
|
|d'arcy
|-----------9------------------------------------------7------
|-------9-------9------------9---------7----4---5---7-----7---
|---7--------------7------7------7--5----5--------------------
|----------------------7--------------------------------------


   stars follow wishes fill our  bed
 
 billy
|---0-----0------0--0---0----0----0--2--3-3p2---2p0---2-2-2---
|---0-----0------0--0---0----0----0--3--3-3---3-3-----3-3-3---
|---1-----1------1--1---1----1----1--2--2-2-----2-----2-2-2---
|---2-----2------2--2---2----2----2--0----0-----0---0---------
|---2-----2------2--2---2----2--------------------------------
|-------------------------------------------------------------
|
|james
|----------------------16--------15-14------------------------
|---------------15-17-------17--------------------------------
|--16-13----13------------------------------------------------
|--------14---------------------------------------------------
|-------------------------------------------------------------
|-------------------------------------------------------------
|
|d'arcy
|---------9-------------------------------------------7-------
|------9-----9---------------9---------7--4----5----7---------
|---7------------7------7---------7--5--5---------------------
|-------------------7-----------------------------------------


  she said,      "i'm dead"

 billy                       drum fill + guitar noise
|------0---0-----------0--3----------------------------
|------1---1-----------1--1----------------------------
|------0---0---0-------0--0----------------------------
|------2---2-----------2-------------------------------
|------3---3-----------3-------------------------------
|------------------------------------------------------
|
|james
|------------------------------------------------------
|------------------------------------------------------
|--12-11--12------12--11--9----------------------------
|-------------12---------------------------------------
|------------------------------------------------------
|------------------------------------------------------
|
|d'arcy
|----------5-------------------------------------------
|--------5-----------------5---------------------------
|---5--3-------3---5---3-------------------------------
|------------------------------------------------------


Guitar solo:
play the chorus riff 4x all the way through, playing this the 2nd time:

 james                                                       hold
|-----------0--------------0-----------------0-------------------
|-----------0--------------0-----------------0-------------------
|-----------1------------x-1-----------------1-------------------
|--5/7------2---x-5-x-7--x-2---x-x--5/7------2-----5---7-----9---
|--5/7------2---x-5-x-7--x-2---x-x--5/7------2-----5---7-----9---
|--3/5--x-x-0---x-3-x-5--x-0---x-x--3/5--x-x-0-----3---5--0--7---
|
|d'arcy
|----------------------------------------------------------------
|----------------------------------------------------------------
|----------------------------------------------------------------
|--3h5--5-5-0---0-3---5--5-0--------3h5--5-5-0---0-3---5--0--7---

Then to finish the solo:

 billy + james                       (billy)
|-------------------------------------22b24-b22--
|------------------------------------------------
|----------------------------------2-------------
|----------------------------------2-------------
|--2-0------2-0------2-0-----------0-------------
|------3-0------3-0------3-0-3-0-3---------------
|
|d'arcy
|------------------------------------------------
|------------------------------------------------
|--2-0------2-0------2-0-----------0-------------
|------3-0------3-0------3-0-3-0-3---------------


 billy + james
|------------------------------------------
|------------------------------------------
|----------------------------------2--2/9--
|----------------------------------2--2/9--
|--2-0------2-0------2-0-----------0-------
|------3-0------3-0------3-0-3-0-3---------
|
|d'arcy
|------------------------------------------
|------------------------------------------
|--2-0------2-0------2-0-----------0----7--
|------3-0------3-0------3-0-3-0-3---------

Then the guitar drops out & d'arcy's by herself:

 d'arcy (play 2x)
|---------------------------------------------------
|---------------------------------------------------
|--7-7-7-7-7---7-7-7-7-7---7-7-7-7-7---7-7-7-7-7----
|------------7-----------7-----------7-----------7--


Then either james or billy's guitar comes in, slightly distorted:
 (play 2x)
|---------------------------------------------------
|--7-----------------------9--------10p9------------
|--7-----------------------9---------9--------------
|---------------------------------------------------
|---------------------------------------------------
|---------------------------------------------------
|
|d'arcy (play 2x)
|---------------------------------------------------
|---------------------------------------------------
|--7-7-7-7-7---7-7-7-7-7---7-7-7-7-7---7-7-7-7-7----
|------------7-----------7-----------7-----------7--



  all this pain it smothers me like a bomb that you can't see
 james 
|--------------------------------------0----------------------
|----------0--------------------------------------------------
|--------0---------------------------0------------------------
|------4---------------------------4--------------------------
|----2---------------------------2----------------------------
|--0---------------------------0------------------------------
|
|d'arcy
|-------------------------------------------------------------
|-------------------------------------------------------------
|--7-7-7-7-7-----7-7-7-7-7-----7-7-7-7-7-----7-7-7-7-7--------
|------------7-------------7-------------7-------------7------


 tell me tell me what you're after  I just want to get there faster
 james                              hold 
|-------------------------------------------------------------------
|----------0--------------------------------------------------------
|--------0----------------------------------------------------------
|------4------------------------------------------------------------
|----2--------------------------------------------------------------
|--0--------------------------------0-------------------------------
|
|d'arcy
|-------------------------------------------------------------------
|-------------------------------------------------------------------
|--7-7-7-7-7--------7-7-7-7-7-------7-------------------------------
|-------------7----------------7------------------------------------

And the band comes back in very loud and distorted:

 billy + james
|--3-x-x-3-x-x-3-x-x-3-x-x-3-x-3-x--3-x-x-3-x-x-3-x-x-3-x-x-3-x-3-x--
|--3-x-x-3-x-x-3-x-x-3-x-x-3-x-3-x--3-x-x-3-x-x-3-x-x-3-x-x-3-x-3-x--
|--0-x-x-0-x-x-0-x-x-0-x-x-0-x-0-x--0-x-x-0-x-x-0-x-x-0-x-x-0-x-0-x--
|--1-x-x-1-x-x-1-x-x-1-x-x-1-x-1-x--1-x-x-1-x-x-1-x-x-1-x-x-1-x-1-x--
|--2-x-x-2-x-x-2-x-x-2-x-x-2-x-2-x--2-x-x-2-x-x-2-x-x-2-x-x-2-x-2-x--
|--0-x-x-0-x-x-0-x-x-0-x-x-0-x-0-x--0-x-x-0-x-x-0-x-x-0-x-x-0-x-0-x--
|
|d'arcy
|--------------------------------------------------------------------
|--------------------------------------------------------------------
|--------7-7-7-------7-7-7-----7----------7-7-7-------7-7-7-----7----
|--0-0-0-------0-0-0-------0-0------0-0-0-------0-0-0-------0-0------


 billy + james
|--3-x-x-3-x-x-3-x-x-3-x-x-3-x-3-x--3-x-x-3-x-x-3---x-x-x\--x-x-x\---
|--3-x-x-3-x-x-3-x-x-3-x-x-3-x-3-x--3-x-x-3-x-x-3---x-x-x\--x-x-x\---
|--0-x-x-0-x-x-0-x-x-0-x-x-0-x-0-x--0-x-x-0-x-x-0---x-x-x\--x-x-x\---
|--1-x-x-1-x-x-1-x-x-1-x-x-1-x-1-x--1-x-x-1-x-x-1---x-x-x\--x-x-x\---
|--2-x-x-2-x-x-2-x-x-2-x-x-2-x-2-x--2-x-x-2-x-x-2---x-x-x\--x-x-x\---
|--0-x-x-0-x-x-0-x-x-0-x-x-0-x-0-x--0-x-x-0-x-x-0---x-x-x\--x-x-x\---
|
|d'arcy
|--------------------------------------------------------------------
|--------------------------------------------------------------------
|--------7-7-7-------7-7-7-----7----------7-7-7---------7-------7----
|--0-0-0-------0-0-0-------0-0------0-0-0-------0---0-0-----0-0------


And back into the chorus part:
  
  yeah!
 billy + james
|-----------0--------------0-----------------0--------------0--------
|-----------0--------------0-----------------0--------------0--------
|-----------1------------x-1-----------------1------------x-1--------
|--5/7------2---x-5-x-7--x-2---x-x--5/7------2---x-5-x-7--x-2---x-x--
|--5/7------2---x-5-x-7--x-2---x-x--5/7------2---x-5-x-7--x-2---x-x--
|--3/5--x-x-0---x-3-x-5--x-0---x-x--3/5--x-x-0---x-3-x-5--x-0---x-x--
|
|d'arcy
|--------------------------------------------------------------------
|--------------------------------------------------------------------
|--------------------------------------------------------------------
|--3h5--5-5-0---0-3---5--5-0--------3h5--5-5-0---0-3---5--5-0--------

repeat once more before vocals

i don't live, i invade
i don't give, i unveil
i don't live, i invade
i don't live..

----

Well, I hope you understand it, because I can't think of a better way of
tabbing it out.  Thanks again to all the people that read (and like) my tabs,
it really makes me feel good to know someone's using them.  Maybe I'll mail
them to Billy and see what he thinks.  :)  Later,





Comments


Popular Smashing Pumpkins tabs & chords
Cherub Rock Bass Tabs
Crash Car Star 1 Bass Tabs
Cupid De Locke Intro Bass Tabs
Beautiful 1 Chords
Muzzle 1 Chords
Thirty-three Chords
Luna 1 Tabs
Rudolph The Red Nosed Reindeer 1 Tabs
Do You Close Your Eyes Ukulele
Plume Ukulele


Song lyrics



↑ Back to top | Tablatures and chords are parodies/interpretations of the original songs. You may use it for private study, scholarship, research or language learning purposes only
© 2014 AZChords.com Contact us | Privacy policy | DMCA | Add/correct tabs | Request tabs | Top 50 tabs