» » »

Silverf**K Bass tabs (ver.1)

Artists:  A B C D E F G H I J K L M N O P Q R S T U V W X Y Z # 

Silverf**K Bass tabs (ver.1)

Smashing Pumpkins
Rating:
0/5 (0 votes)

Hard to play? Try these video lessons and learn fast.
                Tuning E.A.D.G

Main Riff

G:-----------------------------|
D:-----------------------------|
A:-5-----5---------------------|
E:---0-0---0-0-0-0-0-0-0-0-0-0-|

The Chorus is this:

G:---------------------|
D:-0-----------0-------|
A:-------0-----------0-|
E:---------------------|

At The End play:

G:------------------------|
D:------------------------|
A:--5-------------5-------|
E:---------0------------0-|
            
Hard to play? Try these video lessons and learn fast. | Correct




comments powered by Disqus
↑ Back to top | Tablatures and chords are parodies/interpretations of the original songs. You may use it for private study, scholarship, research or language learning purposes only