>
 >
Silver*** 1

Silver*** 1 Guitar Tabs

Smashing Pumpkins - Silver*** 1 chords, tabs, tablatures, lyrics

Guitar lessons | Add/correct | Request | Top 50 tabs Artists:  A B C D E F G H I J K L M N O P Q R S T U V W X Y Z 0-9

Silver*** 1 Guitar Tabs – Smashing Pumpkins

CD, Sheet music, Poster

Do you like Silver*** 1? Share with your friends now
TabsTabs v2
X===============================PLEASE NOTE==============================X
X  This tab is all my own and represents my interpretation of the song.  X
X You may only use this tab for private study, scholarship, or research. X
X  Do not change, deface, mutilate, or in any other way alter this tab.  X
X========================================================================X


*Silver****
        

TUNING: D A D G B E


INTRO
                       x28
|-------------------------|
|-------------------------|
|-7-----7-----------------|
|---------x-x-x-x-x-x-x-x-|
|-5-----5-x-x-x-x-x-x-x-x-|
|---0-0---x-x-x-x-x-x-x-x-|


Lead
|-------------------------------|
|-------------------------------|
|-11/12-12\11-11/14-14/16-16----|
|-------------------------------|
|-9-/10-10\9--9-/12-12/14-14----|
|-------------------------------|


Play this just before the verse
|----------|
|----------|
|-7~~------|
|-----0----|
|-5~~-0----|
|-----0----|


VERSE - Guitars tacet


CHORUS
                 x7
|------------------|
|------------------|
|-7--7-------------|
|-7--7--5--5--5h7--|
|-5--5--5--5--5h7--|
|-0--0--5--5--5h7--|

Last time
|--------------|
|--------------|
|-7--7---------|
|-7--7--5------|
|-5--5--5------|
|-0--0--5~~~~--|


INTERLUDE
                       x16
|-------------------------|
|-------------------------|
|-7-----7-----------------|
|---------x-x-x-x-x-x-x-x-|
|-5-----5-x-x-x-x-x-x-x-x-|
|---0-0---x-x-x-x-x-x-x-x-|


Lead
                        x4
|-------------------------|
|-------------------------|
|-11/12-12\11-11/14-14\11-|
|-------------------------|
|-9-/10-10\9--9-/12-12\9--|
|-------------------------|

|---------------------------|
|---------------------------|
|-16-----16-----------------|
|---------------------------|
|-14-----14-----------------|
|----0-0----0-0-0-0-0-0-0-0-|

|---------------------------|
|---------------------------|
|-17-----17-----------------|
|---------------------------|
|-15-----15-----------------|
|----0-0----0-0-0-0-0-0-0-0-|

|---------------------------|
|---------------------------|
|-19-----19-----------------|
|---------------------------|
|-17-----17-----------------|
|----0-0----0-0-0-0-0-0-0-0-|

|---------------------------|
|---------------------------|
|-21-----21-----------------|
|---------------------------|
|-19-----19-----------------|
|----0-0----0-0-0-0-0-0-0-0-|

|-----------------------------------------|
|-----------------------------------------|
|-21b21b21b21b22b22b22b22b23b23b23b23~~~~-|
|-----------------------------------------|
|-19--------------------------------------|
|-----------------------------------------|


And then the next riff
                           x4
|----------------------------|
|----------------------------|
|-7--------7b9r7p5h7p5\4h5~~-|
|----------------------------|
|-5--------------------------|
|----0--0--------------------|


|------------------|-----------------|---------------|---------------|
|------------------|-----------------|---------------|---------------|
|-7~~--------------|-7~~-------------|-7~~-----------|-7~~-----------|
|-----0------------|-----0-----------|-----0---------|-----0---------|
|-5~~-0--/17b19~~--|-5~~-0-----------|-5~~-0---------|-5~~-0---------|
|-----0------------|-----0--3b5r3~~--|-----0--/15~~--|-----0--3~~~~--|


And the next riff (with misc. feedback)
|--------------------------------------------------------------------|
|--------------------------------------------------------------------|
|-/5~~~~-4h5p4\2~~--4p2p0h2~~--4-5~~~~-4h5p4\2~~--4p2p0h2~~--2/7~~~~-|
|--------------------------------------------------------------------|
|--------------------------------------------------------------------|
|--------------------------------------------------------------------|


VERSE 2

Lead - with delay and volume swells
                          x3
|---------------------------|
|---------------------------|
|---------------------------|
|-4~~~~--5~~~~--7~~~~--\\\\-|
|----------------------\\\\-|
|----------------------\\\\-|

|---------------------------|
|---------------------------|
|---------------------------|
|-4~~~~--2~~~~---------\\\\-|
|---------------5~~~~--\\\\-|
|----------------------\\\\-|


INTERLUDE 2 - With delay and spacey effects

          x4
|-0----5----|
|-7----3----|
|-5----2----|
|-4----0----|
|-----------|
|-----------|


Lead
|-------------------------|
|-------------------------|
|-11h14p11~~~~------------|
|-------------------------|
|-------------------------|
|-------------------------|

|-------------------------|
|-15~~~~--15-17-19-15~~~~-|
|-------------------------|
|-------------------------|
|-------------------------|
|-------------------------|


BRIDGE

         x12
|-0----5----|
|-7----3----|
|-5----2----|
|-4----0----|
|-----------|
|-----------|


Lead (with delay and volume swells)
|-----------------|
|-----------------|
|-----------------|
|-----------------|
|-----------------|
|-/10~~~~-/12~~~~-|


INTERLUDE 3 - Guitars tacet

Bang bang you're dead...


CHORUS 2
                 x7
|------------------|
|------------------|
|-7--7-------------|
|-7--7--5--5--5h7--|
|-5--5--5--5--5h7--|
|-0--0--5--5--5h7--|

Last time
|--------------|
|--------------|
|-7--7---------|
|-7--7--5------|
|-5--5--5------|
|-0--0--5~~~~--|


OUTRO
|------------------------------|
|------------------------------|
|-11---------11---------11-----|
|------------------------------|
|-9----------9----------9------|
|----0-0-0-0----0-0-0-0----0-0-|

|------------------------------|
|------------------------------|
|-12---------12---------12-----|
|------------------------------|
|-10---------10---------10-----|
|----0-0-0-0----0-0-0-0----0-0-|

|------------------------------|
|------------------------------|
|-14---------14---------14-----|
|------------------------------|
|-12---------12---------12-----|
|----0-0-0-0----0-0-0-0----0-0-|

|------------------------------|
|------------------------------|
|-14---------14---------14-----|
|------------------------------|
|-12---------12---------12-----|
|----0-0-0-0----0-0-0-0----0-0-|

|------------------------------|
|------------------------------|
|-11---------11---------11-----|
|------------------------------|
|-9----------9----------9------|
|----0-0-0-0----0-0-0-0----0-0-|

|------------------------------|
|------------------------------|
|-12---------12---------12-----|
|------------------------------|
|-10---------10---------10-----|
|----0-0-0-0----0-0-0-0----0-0-|

|------------------------------|
|------------------------------|
|-14---------14---------14-----|
|------------------------------|
|-12---------12---------12-----|
|----0-0-0-0----0-0-0-0----0-0-|

|------------------------------|
|------------------------------|
|-14---------14---------14-----|
|------------------------------|
|-12---------12---------12-----|
|----0-0-0-0----0-0-0-0----0-0-|


End on
|-----------|-----------|----------------|----------------|
|-3---------|-3---------|-3-3-3----------|-3-3-3----------|
|-2---------|-2---------|-2-2-2----------|-2-2-2----------|
|-0---0-----|-0---0-----|-0-0-0----------|-0-0-0----------|
|-----0-----|-----0-----|----------------|----------------|
|-----0-----|-----0-----|--------/21~~~~-|--------/21~~~~-|

...and gradually decrease the tempo til the end...
|------------------------------------------------------------|
|-3-3-3-3-3-3-3-3-3-3-3-3-3-3-3-3-3-3-3-3-3-3-3-3-3-3--------|
|-2-2-2-2-2-2-2-2-2-2-2-2-2-2-2-2-2-2-2-2-2-2-2-2-2-2--------|
|-0-0-0-0-0-0-0-0-0-0-0-0-0-0-0-0-0-0-0-0-0-0-0-0-0-0--------|
|-0-0-0-0-0-0-0-0-0-0-0-0-0-0-0-0-0-0-0-0-0-0-0-0-0-0--------|
|-0-0-0-0-0-0-0-0-0-0-0-0-0-0-0-0-0-0-0-0-0-0-0-0-0-0--------|

Now make lots of noise...


Play this at the very end while Billy is talking
|------0----2-3-2-3-5--|
|-3------3-------------|
|-2--------------------|
|-0--------------------|
|----------------------|
|----------------------|





Comments


Popular Smashing Pumpkins tabs & chords
Ava Adore 1 Chords
Beautiful Chords
God Chords
Astral Planes Tabs
La Dolly Vita Tabs
Obscured Tabs
Plume 1 Tabs
Rhinoceros Tabs
Shame 1 Tabs
The End Is The Beginning Is The End Tabs


Song lyrics



↑ Back to top | Tablatures and chords are parodies/interpretations of the original songs. You may use it for private study, scholarship, research or language learning purposes only
© 2014 AZChords.com Contact us | Privacy policy | DMCA | Add/correct tabs | Request tabs | Top 50 tabs