>
 >
Rocket Live

Rocket Live Guitar Tabs

Smashing Pumpkins - Rocket Live chords, tabs, tablatures, lyrics

Guitar lessons | Add/correct | Request | Top 50 tabs Artists:  A B C D E F G H I J K L M N O P Q R S T U V W X Y Z 0-9

Rocket Live Guitar Tabs – Smashing Pumpkins

CD, Sheet music, Poster

Do you like Rocket Live? Share with your friends now
Tabs
-------------------------------------------------------------------------------
-------------------------------------------------------------------------------

Tuning:Standard


This a crazy version of rocket, Billy only sings the first couple of lines of the verse.
The song goes for 2:07, it's pretty much a long intro - tiny bit of verse then 
long solo at the end.
LOTS of distortion and wah wah pedal for the solo :)

0:00-0:47
|---------------------------------------------------------------------------|
|---------------------------------------------------------------------------|
|---------------------------------------------------------------------------|
|-4~---4~--4~--4~--4~-----4-4~----------------4-4~-4-4~----------------4-4~-|
|-4~---4~--4~--4~--4~-----4-4~----------------4-4~-4-4~----------------4-4~-|
|-2~---2~--2~--2~--2~---\-2-2~2-2h3~p2-2h3~p2-2-2~-2-2~2-2h3~p2-2h3~p2-2-2~-|
0:47
Bleed in your own light 
|---------------------------------------------------------------------------|
|---------------------------------------------------------------------------|
|---------------------------------------------------------------------------|
|-4-4~----------------4-4~-4-4~----------------4-4~-------------------------|
|-4-4~----------------4-4~-4-4~----------------4-4~-------------------------|
|-2-2~2-2h3~p2-2h3~p2-2-2~-2-2~2-2h3~p2-2h3~p2-2-2~-------------------------|
0:54
Dream of your own life
|---------------------------------------------------------------------------|
|---------------------------------------------------------------------------|
|---------------------------------------------------------------------------|
|-4-4~----------------4-4~-4-4~----------------4-4~-------------------------|
|-4-4~----------------4-4~-4-4~----------------4-4~-------------------------|
|-2-2~2-2h3~p2-2h3~p2-2-2~-2-2~2-2h3~p2-2h3~p2-2-2~-------------------------|
1:00
I miss me
|---------------------------------------------------------------------------|
|---------------------------------------------------------------------------|
|---------------------------------------------------------------------------|
|-4-4~----------------4-4~-4-4~----------------4-4~-------------------------|
|-4-4~----------------4-4~-4-4~----------------4-4~-------------------------|
|-2-2~2-2h3~p2-2h3~p2-2-2~-2-2~2-2h3~p2-2h3~p2-2-2~-------------------------|
1.08
I miss everything   I'll never be
|---------------------------------------------------------------------------|
|---------------------------------------------------------------------------|
|---------------------------------------------------------------------------|
|-4-4~--2-2~--4~---4-4-4-4-4-4-4-4------------------------------------------|
|-4-4~--2-2~--4~---4-4-4-4-4-4-4-4------------------------------------------|
|-2-2~--0-0~--2~---2-2-2-2-2-2-2-2------------------------------------------|
1.12
|---------------------------------------------------------------------------|
|---------------------------------------------------------------------------|x5
|----------5-5-5-5---4-4-4-4------------------------------------------------| 
|-4-4-4-4--5-5-5-5---4-4-4-4---4-4-4-4--------------------------------------|
|-4-4-4-4--3-3-3-3---2-2-2-2---4-4-4-4--------------------------------------| 
|-2-2-2-2----------------------2-2-2-2--------------------------------------|
This is played for the
whole solo, finish on f#


1.13
|---------------------------------------------------------------------------|
|---------------------------------------------------------------------------|
|--11-11-11-11-11-11-11-11-11-\--/------------------------------------------|
|---------------------------------------------------------------------------|
|-----------------------------------11p10/8h9-6h8h9p8p6--4h6h8p6p4-4/6/8/9/-|
|---------------------------------------------------------------------------|
1.19
And all and all
|---------------------------------------------------------------------------|
|---------------------------------------------------------------------------|
|---------------------------------------------------------------------------|
|-11-11h13brp11-11-11/13/14/15-15b-14h16p14-14h16/18b-----------------------|
|---------------------------------------------------------------------------|
|---------------------------------------------------------------------------|
1.31
|---------------------------------------------------------------------------|
|---------------------------------------------------------------------------|
|-------------------14b15brbh14---------------------------------------------|
|----------------15------------16p14~16-16~---------------------------------|
|-12h14/15p14/16------------------------------------------------------------|
|---------------------------------------------------------------------------|
1.36 I shall be freeeeeeeeeeee
|---------------------------------------------------------------------------|
|-----------------------------------------------12--12-14br~-14-15brbrb~14--|
|---------------------------------------------15--15------------------------|
|-16-16-16-16-1616161616h18pb18pb18pb-16-16~--------------------------------|
|---------------------------------------------------------------------------|
|---------------------------------------------------------------------------|
1.49
|--14\13-----14\13----------------------------------------------------------|
|--------9--------9-------/14--------------------------------------------21~|
|---------9~-------9~---------16p15h16p15-11~-------------------------------|
|--------------------------------------------11p9\8h9\6h8h9p8\4--4-6-8-9----|
|---------------------------------------------------------------------------|
|---------------------------------------------------------------------------|

Please don't edit this tab without asking me first.
Would love to hear your comments and please rate.

************************************

| /   slide up
| \   slide down
| h   hammer-on
| p   pull-off
| ~   vibrato
| +   harmonic
| x   Mute note
| b   Bend
| pb  Pre-bend
| br  Bend release
| pbr Pre-bend release
| brb Bend release bend

************************************





Comments


Popular Smashing Pumpkins tabs & chords
*** You 1 Bass Tabs
Honey Spider Bass Tabs
Dancing In The Moonlight Chords
The Rose March Chords
Galapagos Tabs
Siva 2 Tabs
Starla 1 Tabs
The End Is The Beginning Is The End 1 Tabs
Where Boys Fear To Tread Tabs
Jealousy Ukulele


Song lyrics



↑ Back to top | Tablatures and chords are parodies/interpretations of the original songs. You may use it for private study, scholarship, research or language learning purposes only
© 2014 AZChords.com Contact us | Privacy policy | DMCA | Add/correct tabs | Request tabs | Top 50 tabs