>
 >
Rocket 3

Rocket 3 Bass Tabs

Smashing Pumpkins - Rocket 3 chords, tabs, tablatures, lyrics

Guitar lessons | Add/correct | Request | Top 50 tabs Artists:  A B C D E F G H I J K L M N O P Q R S T U V W X Y Z 0-9

Rocket 3 Bass Tabs – Smashing Pumpkins

CD, Sheet music, Poster

Do you like Rocket 3? Share with your friends now
Bass TabsBass Tabs v2Bass Tabs v3ChordsChords v2TabsTabs v2Ukulele
================================================================================
                       S M A S H I N G   P U M P K I N S

                                       -

                                  R O C K E T
================================================================================


                                 SIAMESE DREAM
                           (c) Virgin Records (1993)


                                Standard Tuning
                                    E A  D G

                                 Tempo = 86 BPM
                               Time Signature = 4/4



                          -----------------------------

                                 PADDY MCMULLAN

                                   Version 1.0
                               11th November 2010
                             -----------------------

                             Tablature Symbols Used:


 p         -  Pull-Off
 h         -  Hammer-On
 (/)       -  Legato Slide (Blank space indicates length of slide)
 \         -  Slide Down to/Down From (Blank space indicates length of slide)
 /         -  Slide Up To/Up From (Blank space indicates length of slide)
 ( )       -  Ghost Note/Tied Note/Implied Note
 REST      -  Rest and sustain rest for duration of blank space


                                   ===========
                                   Song Notes:
                                   ===========


 I've tabbed every variation in full, which makes the tab a little difficult to
 follow, so I've included the lyrics and the song's time position to help guide
                                   you through.



================================================================================
Part 1:                                                   [ Time 00:00 - 00:56 ]
================================================================================


Rest for 4 bars before joining in


  1 "Love!"                        2
||--------------------------------|------------------------------|
||--------------------------------|------------------------------|
||--10--10--10----10---10------8--|--10----10----10---10------8--|
||------------------------8h10----|----------------------8h10----|

 3                              4
|------------------------------|------------------------------|
|------------------------------|------------------------------|
|--10----10----10---10------8--|--10----10----10---10------8--|
|----------------------8h10----|----------------------8h10----|

 5                                  6
|----------------------------------|----------------------------------|
|----------------------------------|----------------------------------|
|--10--10--10---10-10---10------8--|--10--10--10---10-10---10------8--|
|--------------------------8h10----|--------------------------8h10----|

 7                                  8
|----------------------------------|-----------------------------------|
|----------------------------------|-----------------------------------|
|--10--10--10---10-10---10------8--|--10--10--10---10-10---10------8-8-|
|--------------------------8h10----|--------------------------8h10-----|


 9 "Bleed               in your   own   light"              10
|------------------------------|------------------------------|
|------------------------------|------------------------------|
|--10----10----10---10------8--|--10----10----10---10------8--|
|----------------------8h10----|----------------------8h10----|


11"Dream               of your   own   life                I" 12
|------------------------------|------------------------------|
|------------------------------|------------------------------|
|--10----10----10---10------8--|--10----10----10---10------8--|
|----------------------8h10----|----------------------8h10----|


13 "miss               me                                  I" 14
|------------------------------|------------------------------|
|------------------------------|------------------------------|
|--10----10----10---10------8--|--10----10----10---10------8--|
|----------------------8h10----|----------------------8h10----|


15 "miss         everything                            I'll never..." 16
|-------------------------------|-----------------------------------||
|----------------7---7-7h8p7----|-----------------------------------||
|--10--10--10-------------------|-----------------------------------||
|----------------------------8--|--(8)--8--8--8-8-8-8-8-8-8-8-10-10-||



================================================================================
Part 2:                                                   [ Time 00:56 - 01:18 ]
================================================================================


  "...be                                                         and on"
||-----------------------------------|----------------------------------|
||-----------------------------------|----------------------------------|
||--10--10----10h12------------------|--8--8--8h10-8h10-----------------|
||-------------------10--10----10h12-|------------------8--8--8-(8/10)--|


  "and on                                               I torch my"
|----------------------------------|--------------------------------|
|----------------------------------|--------------------------------|
|--10--10----10h12-----------------|--8--8--8h10-8h10---------------|
|------------------10--10----10h12-|------------------8--8--(8/10)--|


  "Soul            to show the world that  I    am pure    deep inside my"       
|---------------------------------------|------------------------------------|
|---------------------------------------|------------------------------------|
|--10--10--10h12-10h12------------------|--8--8--8h10-8h10-------------------|
|----------------------10--10--10--12\ -|------------------8--8--8-(8/10)-10-|


   "heart                       heart                 no   more..."
|----------------------------------|---------------------------------||
|----------------------------------|---------------------------------||
|--10--10----10h12-----------------|--8--8--8h10-8h10----------------||
|------------------10--10----10h12-|------------------8--8-8-(8/10)--||



================================================================================
Part 3:                                                   [ Time 01:18 - 02:12 ]
================================================================================


   "...lies!"
||------------------------------|------------------------------|
||------------------------------|------------------------------|
||--10----10----10---10------8--|--10----10----10---10-8----8--|
||----------------------8h10----|------------------------10----|


|--------------------------------|-------------------------------|
|--------------------------------|-------------------------------|
|--10--10--10----10---10------8--|--10----10----10---10p8--------|
|------------------------8h10----|------------------------10-8-8-|


   "A crown of horns                an image formed      de-"
|------------------------------|------------------------------|
|------------------------------|------------------------------|
|--10----10----10---10------8--|--10----10----10---10-8----8--|
|----------------------8h10----|------------------------10----|


  "formed"
|------------------------------|-------------------------------|
|------------------------------|-------------------------------|
|--10----10----10---10------8--|--10----10----10---10p8--------|
|----------------------8h10----|------------------------10-8-8-|


   "The mark I've borne              A mark of scorn..."
|------------------------------|------------------------------|
|------------------------------|------------------------------|
|--10----10----10---10------8--|--10----10----10---10-8----8--|
|----------------------8h10----|------------------------10----|

                       "to you"
|------------------------------|------------------------------|
|------------------------------|------------------------------|
|--10----10----10---10------8--|--10----10----10---10p8----8--|
|----------------------8h10----|------------------------10----|


  "Consume my love devour my   hate,    it   only powers my..."
|-----------------------------|-------------------------------|
|-----------------------------|-------------------------------|
|-----------------------------|-------------------------------|
|--8--8--8--8-8-8--8-8-8--8-8-|--8--8-8-8--8-8-8--8-8-8-8-8-8-|


  "escape"
|------------------------------|------------------------------|
|------------------------------|------------------------------|
|--10----10----10---10------8--|--10----10----10---10p8----8--|
|----------------------8h10----|------------------------10----|


   "The moon is out the stars invite, I think I'll leave..."
|-----------------------------|-------------------------------|
|-----------------------------|-------------------------------|
|-----------------------------|-------------------------------|
|--8--8--8--8-8-8--8-8-8--8-8-|--8--8-8-8--8-8-8--8-8-8--8-7 /|


   "tonight."
|--------------------------------------|
|--------------------------------------|
|--------------------------------------|
|--10--10----10-10-10--10-10-10--10-10-|


|---------------------------------------------||
|---------------------------------------10h12-||
|--------------------------------10h12--------||
|--10--10-10-10--10-10-10--10-10--------------||



================================================================================
Part 4:                                                   [ Time 02:12 - 02:33 ]
================================================================================


    "Soon                 I'll find  myself alone"
||--------------------------|-----------------------------|
||--------------------------|-----------------------------|
||--5--5----5h7-0--0----0-2-|--3--3--3h5-3h5--------------|
||--------------------------|----------------3--3--(3/5)--|

   "To                   relax  and fade    away"
|--------------------------|-----------------------------|
|--------------------------|-----------------------------|
|--5--5----5h7-0--0----0h2-|--3--3--3h5-3h5--------------|
|--------------------------|----------------3--3--3s--5--|


   "Do           you            know what's coming down?"
|----------------------------|-------------------------------|
|----------------------------|-------------------------------|
|--5--5--5h7-5h7-0--0--0--2--|--3--3--3h5-3h5----------------|
|----------------------------|----------------3----3-(3/5)-5-|


   "Do           you          know I couldn't stay?"
|--------------------------|--------------------------||
|--------------------------|--------------------------||
|--5--5----5h7-0--0----0h2-|--3------3h5--------------||
|--------------------------|-------------3----3-3-3-3-||



================================================================================
Part 5:                                                   [ Time 02:33 - 03:00 ]
================================================================================


    "Free                                        I shall be..."
||---------------------------|------------------------------|
||---------------------------|------------------------------|
||-------------5----5--(5/7)-|--8--8--8--8h10---------------|
||--3--3--3------------------|----------------8--8--(8/10)--|


   "free                                       I shall be..."
|-------------------------------------|---------------------------|
|-------------------------------------|---------------------------|
|--10--10--10--10-10----------------0-|--8--8--8--8-8----------0--|
|--------------------10--10--10--10---|---------------8--8--8-----|


   "free                 I shall be      free           I shall be.."
|-------------------------------------|----------------------------|
|-------------------------------------|----------------------------|
|--10--10--10--10-10----------------0-|--8--8--8--8-8--------------|
|--------------------10--10--10--10---|---------------8--8--8--10--|


   "free             free              free of these voices inside
|-------------------------------------|----------------------|
|-------------------------------------|----------------------|
|--10--10--10--10-10----------------0-|--8----8----8----8----|
|--------------------10--10--10--10---|----------------------|

   me"
|-------------------|-------------------||
|-------------------|-------------------||
|-------------------|-------------------||
|--8----------------|--(8)--------------||




================================================================================
Part 6:                                                   [ Time 03:00 - 03:33 ]
================================================================================


Rest for 4 bars before continuing

                                                          "I shall be..."
||-----------------------------------|-----------------------------------|
||-----------------------------------|-----------------------------------|
||--10--10----10h12------------------|--8--8--8h10-8h10------------------|
||-------------------10--10----10h12-|-------------------8--8--8-(8/10)--|


   "...free                                               I shall be..."
|-----------------------------------|----------------------------------|
|-----------------------------------|----------------------------------|
|--10--10----10h12------------------|--8--8--8-10-8h10-----------------|
|-------------------10--10----10-12-|------------------8--8--8-(8/10)--|


   "...free."
|-------------------------------------|------------------------------------|
|-------------------------------------|------------------------------------|
|--10--10--10h12-10h12-------------7--|--8--8--8h10-8h10-------------------|
|----------------------10--10--10-----|------------------8--8--8-(8/10)-10-|


|----------------------------------|-----------------------------------||
|----------------------------------|-----------------------------------||
|--10--10----10h12-----------------|--8--8--8h10-8h10------------------||
|------------------10--10----10h12-|--------------------8--8-8-(8/10)--||



================================================================================
Outro:                                     Tempo = 86 BPM [ Time 03:33 - 04:06 ]
================================================================================


||-----------------------------------|--------------------------------------|
||-----------------------------------|--------------------------------------|
||--10--10----10h12------------------|--8--8--8h10-8h10---------------------|
||-------------------10--10----10h12-|--------------------8--8--8-(8/10)-10-|


|---------------------------------------|------------------------|
|---------------------------------------|------------------------|
|--10--10--10h12-10h12------------------|------------------------|
|----------------------10--10--10--12\ -|--1--1--1----1----1--1--|


                       //-----------Tremolo Picking-----------\\
|---------------------|-------------------|--------------------|
|---------------------|-------------------|--------------------|
|--3--------3---------|-------------------|--------------------|
|---------------------|--3----------------|--4--------5--------|


//-----------------Tremolo Picking---------------\\
|------------------|------------------------------|------------------R--  --||
|------------------|------------------------------|------------------E--  --||
|------------------|------------------------------|------------------S--  --||
|--6---7---8---9---|--10---11---12---13---14---15-|--15----15----15--T--  --||



================================================================================
End
================================================================================


Tab summary:        Part 1 x 1
                    Part 2 x 1
                    Part 3 x 1
                    Part 4 x 1
                    Part 5 x 1
                    Part 6 x 1
                    Outro x 1

                    END





Comments


Popular Smashing Pumpkins tabs & chords
Clones 3 Bass Tabs
Mayonaise Bass Tabs
If There Is A God Chords
Landslide Chords
Take Me Down Chords
Bodies 1 Tabs
Pastichio Medley Tabs
Unknown Tabs
Dreaming Ukulele
Obscured Ukulele


Song lyrics



↑ Back to top | Tablatures and chords are parodies/interpretations of the original songs. You may use it for private study, scholarship, research or language learning purposes only
© 2014 AZChords.com Contact us | Privacy policy | DMCA | Add/correct tabs | Request tabs | Top 50 tabs