» » »

Smashing Pumpkins, Rocket Tabs (ver.1)

Artists:  A B C D E F G H I J K L M N O P Q R S T U V W X Y Z # 

Rocket Tabs (ver.1)

Smashing Pumpkins Tabs
 Rating:
4/5 (4 votes)
Rocket lessons Tabs too difficult? Try these video lessons and learn fast
1
                Found on Drown, Spaceboy, etc.

That Main Riff:
-----------------5------
-----3---5\3---3--------
-0-0---0-----0--------------
--------------------
------------------------
-----------------------

The riff is backed by:
--3--3-3--3-3--3-3--3----3----
--3--3-3--3-3--3-3--3----3-----
--0--0-0--0-0--0-0--0----0----
--0--0-0--0-0--0-0--0----0-----
--2--2-2--2-2--2-2--0/2--2\0-----
--3--3-3--3-3--3-3--3----3-----

The Bass Line:
------------------------------
-----------------------------
-----------------------------
-3--3-3--3-3--3-3--5/7--5\3---

Before the Chorus the two chords are:
------------
-----------
-5---5----
-2---5-----
-0---3-----
-----------

Behind the GDFC part of the chorus:
----------------------------------------------
----------------10----------13-------------8-----
-0-0-0-0-----11----11----14----14------9----9---
----------12----------15------------10---10----------
--------------------------------------------
------------------------------------------------
Those leads are the same after the chorus:
e----------------------
B-6\8-8-8--6\8-8-8--6\8-8-8--
G---------------------------4

e---------------------------5\7-7br
B-6\8-8-8--6\8-8-8--6\8-8-8--------
G---------------------------------
repeat both

Then the bridge (consume my love...):
C and G

Then the soon I find myself alone part:
D A C G

Then the outro:
e-----------------------------------------------------
B-8-8---\12--8-8---\12--13\12-12---8-8---\12--12---15\12-12--13\12--13\12---
G-0---0------0---0-----------------0---0---------0-0-----0--------0---------

The building at the end is taking an open G chord and escalating it up
the neck one fret at a time up to the octave.
            
Submit corrections

comments powered by Disqus
↑ Back to top | Smashing Pumpkins Tabs for Rocket. Lyrics for acoustic guitar and electric guitar. 1 Tablatures and chords are parodies/interpretations of the original songs. You may use it for private study, scholarship, research or language learning purposes only