» » »

Quasar Tabs (ver.1)

Artists:  A B C D E F G H I J K L M N O P Q R S T U V W X Y Z # 

Quasar Tabs (ver.1)

Smashing Pumpkins
Rating:
0/5 (0 votes)

Hard to play? Try these video lessons and learn fast.
                (Intro)
-------------------------------------------------------------------------------
                             QUASAR - The Smashing Pumpkins
-------------------------------------------------------------------------------

Tuning: Drop D


Part 1
e|---------------------------------x-x-|
B|---------------------------------x-x-|
G|---------------------------------x-x-|
D|---------10-h-12---------10-h-12-x-x-|
A|-10-h-12--x----x-10-h-12--x----x-x-x-|
D|--0----0--0----0--0----0--0----0-x-x-|

Part 2

Lead
e|--------------------|
B|--------------------|
G|-14-12-11--14-12-14-|
D|--------------------|
A|--------------------|
D|--------------------|

Rhythm chords
e|-----|--------|
B|-----|--------|
G|-14--|-14-17--|
D|--x--|--x--x--|
A|-12--|-12-15--|
D|-----|--------|

Part 3

e|----------------------------|
B|----------------------------|
G|----------------------------|
D|-10-h-12-12-0-0-0-12-12-12--|
A|-10-h-12-12-0-0-0-12-12-12--|
D|-10-h-12-12-0-0-0-12-12-12--|

Part 4

e|--------------|
B|--------------|
G|--------------|
D|--------------|
A|-3-h-5-5-5(b)-|
D|-0---0-0-0----|

************************************

| /   slide up
| \   slide down
| h   hammer-on
| p   pull-off
| ~   vibrato
| +   harmonic
| x   Mute note
| b   Bend
| pb  Pre-bend
| br  Bend release
| pbr Pre-bend release
| brb Bend release bend

************************************
            
Hard to play? Try these video lessons and learn fast. | Correct




comments powered by Disqus
↑ Back to top | Tablatures and chords are parodies/interpretations of the original songs. You may use it for private study, scholarship, research or language learning purposes only